Oops, an error
Loading. Please wait.

Everywhere I Go Tab

ver3
ver3

Whole song

More versions @911Tabs.com
2,292 views 9 this week
no commentswrite comment
1 2 3 4 5
please rate
Autoscroll
+/-
esc
set tempo
stop
Contributor
Difficulty
intermediate
Hey! There's an official Ultimate Guitar app which is ideal
for learning songs when you're away from computer. Get the app
WARNING: You are trying to view
                                    content from Ultimate-Guitar.com
                                    in an unauthorized application,
                                    which is prohibited.

                                    Please use an official Ultimate
                                    Guitar Tabs application for iPhone,
                                    iPad or Android to access legitimate
                                    chords, guitar, bass, and drum tabs
                                    from Ultimate-Guitar.com database.

                                    Type "ultimate guitar tabs" in Apple
                                    App Store's or Android Market's
                                    search to find the application.
THE BLACK KEYS

Everywhere I Go (LIVE at Terminal 5)

Key

 b : Bend
 r : Release
 / : Slide into
 \ : Slide out of
 h : Hammer on
 p : Pull off
(-): Ghost note
 ~ : Vibrato
 x : Mute
 u : Up stroke
 d : Down stroke
 T : Fret with thumb
 . : Staccato 

Video of this version can be found here:

http://www.youtube.com/watch?v=hBWNEUS7CYQ
                
_____________________________________________________________________________

Intro

Fingerstyle using thumb and index

e|--------------------------------------------------|
B|--------------------------------------------------|
G|--------5-----------5-----5h7--5------------5-----|
D|--5h7-----7-----5h7---7----------7p5----5h7---7---|
A|0-----------0-----------0-------------0-----------|
E|--------------------------------------------------|



e|---------------5-----5h7---5------------------------------------|
B|-------------5---8-----------8p5--------------5h7---------------|
G|-------5h7-----------------------7---p5---5-7-----5h7p5---5-----|
D|h7-7------------------------------------7---------------7---7---|
A|-----0----------------------------------------------------------|
E|----------------------------------------------------------------|



e|--------------------------------|--------------------------------|
B|--------------------------------|----5---------------------------|
G|------7p5---5h7----p5-----------|------7-----5h7----p5-----------|
D|----------7-0-----------7--5h7--|----------7-0-----------7--5h7--|
A|0-------0-------0---0-----------|0-------0-------0-------0-------|
E|--------------------------------|--------------------------------|



e|--------------------------------|--------------------------------|
B|----5--------------5/7-----7\5--|----5---------------------------|
G|------7-----5h7----5/7-----7\5--|------7-----5h7----p5------5----|
D|----------7-5------5/7-----7\5--|----------7-5-----------7--5h7--|
A|0-------0-------0---------------|0-------0-------0---0-----------|
E|--------------------------------|--------------------------------|



e|--------------------------------|
B|-------------------5/7-----7\5--|
G|-------------------5/7-----7\5--|
D|-------------------5/7-----7\5--|
A|0-------------------------------|
E|--------------------------------|


_____________________________________________________________________________

Verse


e|--------------------------------|--------------------5-----------|
B|----5---------------------------|----5----------------8p5--------|
G|------7-----5h7----p5-----------|------7-----5h7-----------------|
D|----------7-5-----------7--5h7--|----------7-5--------------7p5--|
A|0-------0-------0-------0-------|0-------0-------0---0---0-------|
E|--------------------------------|--------------------------------|



e|--------------------------------|------------------------5/6/7/|
B|----5---------------------------|----5-------------------5/6/7/|
G|------7-----5h7----p5-----------|------7-----5h7-----0---6/7/8/|
D|----------7-5-----------7--5h7--|----------7-5-------0---7/8/9/|
A|0-------0-----------0---0-------|0-------0-------0---0---x-x-x-|
E|--------------------------------|------------------------5/6/7/|



e|8----8--8--8----8--8--8----8--8--8----8--8--|
B|8----8--8--8----8--8--8----8--8--8----8--8--|
G|9----9--9--9----9--9--9----9--9--9----9--9--|
D|10---10-10-10---10-10-10---10-10-10---10-10-|
A|x----x--x--x----x--x--x----x--x--x----x--x--|
E|8----8--8--8----8--8--8----8--8--8----8--8--|



e|7----7--7--7----7--7--6----6--6----------|--------------------------------|
B|7----7--7--7----7--7--6----6--6----------|----5-------------------5-------|
G|8----8--8--8----8--8--7----7--7--5/9\5---|------------5h7----p5---5-------|
D|9----9--9--9----9--9--8----8--8----------|5-----5---7-------------7--5h7--|
A|x----x--x--x----x--x--x----x--x----------|0-------0-------0---0-----------|
E|7----7--7--7----7--7--6----6--6----------|--------------------------------|



e|--------------------------------|
B|----5-5-------------------------|
G|------7-----5h7----p5-----------|
D|----------7-5-----------7--5h7--|
A|0-------0-------0---0-----------|
E|--------------------------------|


0:58

e|--------------------------------|--------------------------------|
B|--------------------------------|----5---------------------------|
G|--------5---7---5h7-----5h7-----|5h7---7-----5h7----p5-----------|
D|----7---------------------------|----------7-------------7--5h7--|
A|0---0---0---0---0---0---0---0---|0---0---0---0---0---0-----------|
E|--------------------------------|--------------------------------|



e|--------------------------------|--------------------5-----------|
B|--------------------------------|----5----------------8p5--------|
G|--------5---7---5h7--p5---------|------7-----5h7-----------------|
D|----7-------------------7---7---|----------7-5--------------7p5--|
A|0---0---0---0---0---0---0---0---|0-------0-------0---0---0-------|
E|--------------------------------|--------------------------------|



e|--------------------------------|--------------------------------|
B|--------------------------------|----5---------------------------|
G|--------5---7---5h7-----5h7-----|5h7---7-----5h7----p5------5----|
D|----7---------------------------|----------7-------------7--5h7--|
A|0---0---0---0---0---0---0---0---|0---0---0---0---0---0-----------|
E|--------------------------------|--------------------------------|



e|--------------------------------|
B|--------------------------------|
G|--------5---7---5h7--p5---------|
D|----7-------------------7---7---|
A|0---0---0---0---0---0---0---0---|
E|--------------------------------|

_____________________________________________________________________________

First solo


e|-------------------------------|-------------------8------------------|
B|---5---------5----------8---8--|8h10------------------------------10--|
G|-----7-------5------7/9---9----|--------------------------------------|
D|----------7-p5-----------------|--------------------------------------|
A|0-------0-------0---0---0------|0---0---0---0---0-----0---0---0-------|
E|-------------------------------|--------------------------------------|



e|8---10--10h11p10p8-------8h10--------|
B|---------------------10--------------|
G|-------------------------------------|
D|-------------------------------------|
A|0---0---0------------0---0---0---0---|
E|-------------------------------------|



e|10/12\10-8-10-8------------------------|--------------------------x---|
B|----------------10p8---8h10p8----------|--------------------------x---|
G|---------------------9--------9\7\5---5|h7p5----------------------x-0-|
D|-------------(0)--------------------7--|------7p5-----------------x-0-|
A|0-------------0--------0------0--------|-----------7\5--3---------x---|
E|---------------------------------------|-------------------5-3b---x---|

_____________________________________________________________________________

Verse II


e|--------------------------------|---------------------------------|
B|----5---------------------------|----5---------------5/7--7--7\5--|
G|------7-----5h7----p5---5--5----|------7-----5h7-----5/7--7--7\5--|
D|----------7-------------7--5h7--|----------7------5--5/7--7--7\5--|
A|0-------0-------0---0-----------|0-------0------------------------|
E|--------------------------------|---------------------------------|



e|--------------------------------|--------------------------------|
B|--------------------------------|----5---------------------------|
G|5----7-----5h7-----p5-----------|------7-----5h7----p5-----------|
D|5--------7-5------------7--5h7--|----------7-------------7--5h7--|
A|0------0--------0---0-----------|0-------0-------0---0-----------|
E|--------------------------------|--------------------------------|



e|--------------------------------|--------------------------------|
B|----------------8---------------|----5---------------------------|
G|--------5---7---------------7---|------7-----5h7----p5-----------|
D|----7---------------------------|----------7-------------7--5h7--|
A|0---0---0---0---0---0---0---0---|0-------0-------0---0-----------|
E|--------------------------------|--------------------------------|



e|--------------------------------|--------------------------------|
B|----------------8---5-----------|--------------------5/7----7\5--|
G|--------5---7-----------7---5---|5h7--p5-------------5/7----7\5--|
D|----7---------------------------|--------7---7-------5/7----7\5--|
A|0---0---0---0---0---0---0---0---|0---0---0---0---0---------------|
E|--------------------------------|--------------------------------|



e|--------------------------------|--------------------------------|
B|----------------8---------------|----5---------------------------|
G|--------5---7--------------\7---|------7-----5h7----p5-----------|
D|----7---------------------------|----------7-------------7--5h7--|
A|0---0---0---0---0---0---0---0---|0-------0-------0---0---0--0----|
E|--------------------------------|--------------------------------|



e|--------------------------------|--------------------------------|
B|----------------8---5-----------|--------------------5/7----7\5--|
G|--------5---7-----------7---5---|5h7--p5-------------5/7----7\5--|
D|----7---------------------------|--------7---7-------5/7----7\5--|
A|0---0---0---0---0---0---0---0---|0---0---0---0---0---------------|
E|--------------------------------|--------------------------------|



e|--------------------------------|--------------------------------|
B|----5---------------------------|----5-------------------5-------|
G|------7-----5h7----p5-----------|------7-----5h7----p5---5--5----|
D|----------7-5-----------7--5h7--|----------7-5-----------7--5h7--|
A|0-------0-------0---0-----------|0-------0-------0---0---0-------|
E|--------------------------------|--------------------------------|



e|--------------------------------|
B|----5---------------5------5----|
G|------7-----5h7-----5------5----|
D|----------7-5-----------7--5h7--|
A|0-------0-------0---0---0--0----|
E|--------------------------------|


_____________________________________________________________________________

Second solo 


e|--------------------------3-----|-------0----------0-------3-----|
B|---5---------5--0---3/5---------|-------0------------3/5---------|
G|-----7-------5--0---------------|-------0-x----------------------|
D|----------7-p5--0---------------|0--------x----------------------|
A|0-------0-----------0---0---0---|0--------x----------0---0---0---|
E|--------------------------------|-----------3b---0---------------|



e|------------------0-------3-----|3h5---------------0-------3-----|
B|3-------------------3/5---------|--------------------3/5---------|
G|---------0----------------------|---------0----------------------|
D|---------0----------------------|---------0----------------------|
A|0------0------------0---0---0---|0------0------------0---0---0---|
E|-----------3b---0---------------|-----------3b---0---------------|



e|------------------0-------3-----|8-----------------0--10h11p10p8-----|
B|3-------------------3/5---------|--------------------------------10--|
G|---------0----------------------|---------0--------------------------|
D|---------0----------------------|---------0--------------------------|
A|0------0------------0---0---0---|0------0-------------0-----0----0---|
E|-----------3b---0---------------|-----------3b---0-------------------|



e|8----------------0--10h11p10p8-----|8--------------0--10h11p10p8------|
B|-------------------------------10--|------------------------------10--|
G|--------0--------------------------|------0---------------------------|
D|--------0--------------------------|------0---------------------------|
A|0-----0-------------0-----0----0---|0---0-------------0-----0-----0---|
E|----------3b---0-------------------|--------3b---0--------------------|



e|8h10/12-----10-8h10p8-----------8----------|
B|------------------------10p8h10---10--p8---|
G|-------------------------------------------|
D|-------------------------------------------|
A|0----0------0-----------0------------------|
E|-------------------------------------------|


*Notes in parenthesis are barred, but not picked. You can't hear them here,
but in alternate live versions they are picked and ring out. The same applies
to notes on the 17th fret, I left out the parenthesis there so the tab didn't
look messy.


e|0---15------12-----8h10---8--------|0---15------12-----8h10---8--------|
B|0--(15)----(12)----8--------10p8---|0--(15)----(12)----8--------10p8---|
G|-----------------------------------|-----------------------------------|
D|---------------0---0---------------|---------------0---0---------------|
A|0---0---------------------0--------|0---0---------------------0--------|
E|-----------------------------------|-----------------------------------|



e|0---15------12-----8h10---8--------|0---15------12-----8h10---8--10/17--|
B|0--(15)----(12)----8--------10p8---|0--(15)----(12)----8----------------|
G|-----------------------------------|------------------------------------|
D|---------------0---0---------------|---------------0---0----------------|
A|0---0---------------------0--------|0---0---------------------0---------|
E|-----------------------------------|------------------------------------|



e|17-17-17---17------------|
B|17-17-17---17------------|
G|----------------0--7b9---|
D|----------------0--------|
A|0-----0----0----0--------|
E|-------------------------|

_____________________________________________________________________________

Verse III


e|--------------------------------|--------------------------------|
B|----5---------------------------|----5---------------------------|
G|------7-----5h7----p5-----------|------7-----5h7----p5-----------|
D|----------7-------------7--5h7--|----------7-------------7--5h7--|
A|--------------------------------|0-------------------------------|
E|--------------------------------|--------------------------------|



e|--------------------------------|--------------------------------|
B|----5---------------------------|----5---------------------------|
G|------7-----5h7----p5-----5---5-|------7-----5h7----p5-----------|
D|----------7-------------7-------|----------7-------------7--5h7--|
A|0-------------------------------|0-------------------------------|
E|--------------------------------|--------------------------------|



e|--------------------------------|----------------------------------|
B|--------------------------------|------5---------------------------|
G|--------5---7---5h7-----5h7-----|5h7-----7-----5h7----p5-----------|
D|----7---------------------------|------------7-------------7--5h7--|
A|--------------------------------|----------------------------------|
E|--------------------------------|----------------------------------|



e|--------------------------------|----------------------------------|
B|--------------------------------|----------------------------------|
G|--------5---7---5h7---p5--------|----------------------------------|
D|----7--------------------7--7---|----------5--------------\2p0-----|
A|--------------------------------|------------------------------3---|
E|--------------------------------|----------------------------------|



e|--------------------------------|----------------------------------|
B|--------------------------------|----------------------------------|
G|--------5---7---5h7-----5h7-----|5h7---5h7-5---5h7----p5-----------|
D|----7---------------------------|-----------h7-------------7--5h7--|
A|--------------------------------|----------------------------------|
E|--------------------------------|----------------------------------|



e|--------------------------------|----5-----------------------x--|
B|--------------------------------|----5----8----5------5------x--|
G|--------5---7---5h7---p5--------|--------------5--------7b9--x--|
D|----7--------------------7--7---|----------------------------x--|
A|--------------------------------|0---0------0----------------x--|
E|--------------------------------|----------------------------x--|


_____________________________________________________________________________

Third solo


e|----------------------------------|
B|----5-----------------------------|
G|------7-----5h7----p5-------------|
D|----------7-------------7---5h7---|
A|0---0-----------0---0-------------|
E|----------------------------------|



e|---------------------------------|------------------------------|
B|----5----------------------------|----5-------5-----------------|
G|------7-----5h7/9------\7---5----|------7-----5-----------------|
D|----------7-------------------7--|----------7p5---7/9---\7--5h7-|
A|0---0-----------0---0------------|0---0-----------0---0---------|
E|---------------------------------|------------------------------|



e|--------------------5-----------|5-------8b-------------5-8p5---|
B|----5-------5-------5-----------|5------------------5-8-------8-|
G|------7-----5---0----------/9---|-------------------------------|
D|----------7p5---0---------------|-------------------------------|
A|0-------0-------0---0---0---0---|0---0---0------0-------0-------|
E|--------------------------------|-------------------------------|



e|5--------5----------5-7----5v--|----10-/5-------------------------|
B|----8/10-5--------8------------|8-----(/5)--8-5-8/10p8-------8----|
G|-------------------------------|-----------------------9\7/9---9--|
D|---------------------------0---|------------------0---------------|
A|0---0----0----------0----------|0---------0------------0----------|
E|-------------------------------|----------------------------------|



e|-------------8----8-10/12---10p8-------|
B|----8---8h10---10----------------10p8--|
G|----9----------------------------------|
D|---------------------------------------|
A|0-------0---------0---------0----------|
E|---------------------------------------|



e|0---15------12-----8h10---8--------|0---15------12-----8h10---8--------|
B|0--(15)----(12)----8--------10p8---|0--(15)----(12)----8--------10p8---|
G|-----------------------------------|-----------------------------------|
D|---------------0---0---------------|---------------0---0---------------|
A|0---0---------------------0--------|0---0---------------------0--------|
E|-----------------------------------|-----------------------------------|



e|0---15------12-----8h10---8--------|0---15------12-----8h10---8--10/17--|
B|0--(15)----(12)----8--------10p8---|0--(15)----(12)----8----------------|
G|-----------------------------------|------------------------------------|
D|---------------0---0---------------|---------------0---0----------------|
A|0---0---------------------0--------|0---0---------------------0--0------|
E|-----------------------------------|------------------------------------|



e|17-17-17-17-17-17-17-17---------|
B|17-17-17-17-17-17-17-17-0-------|
G|------------------------0-7b9---|
D|------------------------0-------|
A|0--0--0--0--0--0--0--0----------|
E|--------------------------------|

_____________________________________________________________________________

Outro


e|--------------------------------|--------------------------------|
B|----5---------------------------|----5---------------------------|
G|------7-----5h7----p5-----------|------7-----5h7----p5-----------|
D|----------7-------------7--5h7--|----------7-------------7--5h7--|
A|0-------0-------0-------0-------|0-------0-------0-------0-------|
E|--------------------------------|--------------------------------|



e|--------------------------------|--------------------------------|
B|----5---------------------------|----5---------------------------|
G|------7-----5h7----p5-----------|------7-----5h7----p5-----------|
D|----------7-------------7--5h7--|----------7-------------7--5h7--|
A|0-------0-------0-------0-------|0-------0-------0-------0-------|
E|--------------------------------|--------------------------------|



e|--------------------------------|--------------------------------|
B|----5---------------------------|----5---------------------------|
G|------7-----5h7----p5-----------|------7-----5h7----p5-----------|
D|----------7-------------7--5h7--|----------7-5-----------7--5h7--|
A|0-------0---0---0---0-----------|0-------0-------0---0-----------|
E|--------------------------------|--------------------------------|



e|--------------------------------|
B|----5---------------------------|
G|------7-----5h7----p5-----------|
D|----------7-0-----------7--5h7--|
A|0-------0-----------0-----------|
E|--------------------------------|



e|----------------5--------------------------------------------5----|
B|----5-------------8p5----------------5h7------------------5-------|
G|------7-----5h7-------7p5--------5h7-----5h7p5----5----5----------|
D|----------7---------------h7-5h7---------------h7---7-------------|
A|0-------0---------------------------------------------------------|
E|------------------------------------------------------------------|
comments
We did not receive enough feedback on this tab! Please rate:
print report bad tab
1 2 3 4 5
I want to post or [tab]
guest
You may want to rate the tab now too:
select rating
Please do not post tabs as comments. Select "correction" instead!