Oops, an error
Loading. Please wait.

Everywhere I Go Tab

ver4
ver4

Whole song

More versions @911Tabs.com
1,227 views 12 this week
no commentswrite comment
1 2 3 4 5
excellent!
x 1
Autoscroll
+/-
esc
set tempo
stop
Contributor
Difficulty
intermediate
Hey! There's an official Ultimate Guitar app which is ideal
for learning songs when you're away from computer. Get the app
WARNING: You are trying to view
                                    content from Ultimate-Guitar.com
                                    in an unauthorized application,
                                    which is prohibited.

                                    Please use an official Ultimate
                                    Guitar Tabs application for iPhone,
                                    iPad or Android to access legitimate
                                    chords, guitar, bass, and drum tabs
                                    from Ultimate-Guitar.com database.

                                    Type "ultimate guitar tabs" in Apple
                                    App Store's or Android Market's
                                    search to find the application.
                                  ~~~~~~~~~~~~~~~~~~~~~~~~~~~~~~~~~~~~~~~~
                                               Everywhere I Go
                                               The Black Keys
                                               Thickfreakness
                                  ~~~~~~~~~~~~~~~~~~~~~~~~~~~~~~~~~~~~~~~~


Tabbed by: Connor O.
Tuning: Standard

Another Black Keys tab for me. It may be easiest to play the main riff with a 
barre shape on the 5th fret, on the bottom four strings. Play the intro barring the
bottom two strings. 

Comment or message any ideas or corrections. Please rate my tab. If you've got
problems with the tab, I'd encourage you to contact me with those problems so I
can fix the tab or provide advice for playing. Don't just give me a poor rating
and not give me any feedback. The idea is for us all to work together to create
a perfect finished product. This tab just represents the best I can do. It's 
definitely up for peer review.


Key:
where # represents a fret number

#h# - hammer
#p# - pull
/ \ - slides, up and down respectively.
#b# - bend from normal note up to achieve bended note.
#r# - release bend from bended note to normal note.
~ - hold note
x - palm mute



Intro:


  0:00

e|-5--------------------------5--------------------------------------------------------|
B|-5--8p5---------------------5--7p5------------------------------8~p5-----------------|
G|--------7----------------------------5--5h7----5-5-------------------5h7--5----------|
D|----0---0---7-5h7-5h7--------------0----0------0-0-5-7-7-7-7-----------------7-7-5h7-|
A|-0----------0-0---0---------0--0-------------------0-0-0-0-0-0--0----0----0--0-0-0---|
E|-------------------------------------------------------------------------------------|



Verse 1:


  0:18

e|---------------------------------|
B|-----5---------------------------|
G|-------7p5---5h7-----5-----------| 
D|-7---------7-------------7---5h7-|
A|-0---0---0---0---0---0---0---0---|
E|---------------------------------|
   *   *   *   *   *   *   *   *



e|---------------------------------|
B|-----5---------------------------|
G|-------7p5---5h7-----5-----------| 
D|-----------7-------------7---5h7-| x2
A|-0---0---0---0---0---0---0---0---|
E|---------------------------------|
   *   *   *   *   *   *   *   *

  0:33  

e|-------------------------x-------|
B|-------------------------x-------|
G|---------------------------------|
D|---------------------------------|
A|---------------------------------|
E|---------------------------------|
   *   *   *   *   *   *   *   *

  0:35

e|---------------------------------|
B|-----5---------------------------|
G|-------7p5---5h7-----5-----------| 
D|-7---------7-------------7---5h7-|
A|-0---0---0---0---0---0---0---0---|
E|---------------------------------|
   *   *   *   *   *   *   *   *



e|---------------------5-----------|
B|-----5-----------------8p5-------|
G|-------7p5---5h7-----------&---5-| & = 7b9b7
D|-----------7---------------------|
A|-0---0---0---0---0---0---0---0---|
E|---------------------------------|


  0:42
                                  
e|---------------------------------|
B|-----5---------------------------|
G|-------7p5---5h7-----5-----------| 
D|-----------7-------------7---5h7-| x2
A|-0---0---0---0---0---0---0---0---|
E|---------------------------------|
   *   *   *   *   *   *   *   *


  0:50
  Everywhere I go
e|-----------------------------------------------------------------|
B|-------------------------------------5---------------------------|
G|---------5---7---7-------5h7-----7-----7p5---5h7-----5-----------|
D|-----7-------------------------------------7-------------7---5h7-|
A|-0---0---0---0---0---0---0---0---0---0---0---0---0---0---0---0---|
E|-----------------------------------------------------------------|


  0:56
  They gotta think I know
e|-----------------------------------------------------------------|
B|-------------------------------------5---------------------------|
G|---------5---7---5h7~~p5---------------7p5---5h7-----5-----------|
D|-----7-------------------7---7-------------7-------------7---5h7-|
A|-0---0---0---0---0---0---0---0---0---0---0---0---0---0---0---0---|
E|-----------------------------------------------------------------|


  1:04
  And everywhere I go
e|-----------------------------------------------------------------|
B|-------------------------------------5---------------------------|
G|---------5---7---7-------5h7-----5h7---7p5---5h7-----5-----------|
D|-----7-------------------------------------7-------------7---5h7-|
A|-0---0---0---0---0---0---0---0---0---0---0---0---0---0---0---0---|
E|-----------------------------------------------------------------| 


  1:12
  They gotta think I know
e|-----------------------------------------------------------------|
B|-------------------------------------5---------------------------|
G|---------5---7---5h7~~p5---------------7p5---5h7-----------------|
D|-----7-------------------7---7-------------7---------------------|
A|-0---0---0---0---0---0---0---0---0---0---0---0---0---------------|
E|-----------------------------------------------------------------|



Solo 1:


  1:16
  
e|-----------------------------8-----------------------8---10------|
B|-----8-----8-8h10----------------10--------------10--------------|
G|-7/9---9---------------------------------------------------------|
D|-----------------------------------------------------------------|
A|-0---0---0---0---0---0---0---0---0---0---0---0---0---0---0-------|
E|-----------------------------------------------------------------|


  1:22
  
e|-&-----8-----8h10--------8-----8-----------------8---------------| & = 10h11p10
B|---------10----------------10--------10--10----------------------|
G|-----------------------------------------------------------------|
D|-----------------------------------------------------------------|
A|-0---0---0---0---0---0---0---0---0---0---0---0---0---0---0---0---|
E|-----------------------------------------------------------------|


  1:30

e|-------------------|
B|-------------------|
G|-9\7-----5h7---5---|
D|-----------------7-|
A|-0---0---0---0---0-|
E|-------------------|



Verse 2:


  1:33  

e|-----------------------------------------------------------------|
B|-----5-------------------------------5---------------5/7-----7\5-|
G|-------7p5---5h7-----5-----------------7p5---5h7-----5/7-----7\5-|
D|-----------7-------------7---5h7-----------7---------------------|
A|-0---0---0---0---0---0---0---0---0---0---0---0---0---0---0---0---|
E|-----------------------------------------------------------------|


  1:40

e|---------------------------------|
B|-----5---------------------------|
G|-------7p5---5h7-----5-----------| X2
D|-----------7-------------7---5h7-|
A|-0---0---0---0---0---0---0---0---|
E|---------------------------------|


  1:48
  My little baby       
e|-----------------------------------------------------------------|
B|-----------------8-------------------5---------------------------|
G|---------5---7---------------8\7-------7p5---5h7-----5-----------|
D|-----7-------------------------------------7-------------7---5h7-|
A|-0---0---0---0---0---0---0---0---0---0---0---0---0---0---0---0---|
E|-----------------------------------------------------------------|
                          

  1:55
  Now let me tell you what I want baby
e|-----------------------------------------------------------------|
B|-----------------8---5---------------------------5---------------|
G|---------5---7-------5---7---5---5h7p5-------------7p5---5-------|
D|-----7-----------------------------------7---7---------7---------|
A|-0---0---0---0---0---0---0---0---0---0---0---0---0---0---0-------|
E|-----------------------------------------------------------------|


  2:02
  My little baby
e|-----------------------------------------------------------------|
B|-----------------8-------------------5---------------------------|
G|---------5---7---------------8\7-------7p5---5h7-----5-----------|
D|-----7-------------------------------------7-------------7---5h7-|
A|-0---0---0---0---0---0---0---0---0---0---0---0---0---0---0---0---|
E|-----------------------------------------------------------------|


  2:09
  Now let me tell you what I want baby
e|-----------------------------------------------------------------|
B|-----------------8---5---------------------------5---------------|
G|---------5---7-------5---7---5---5h7p5-------------7p5---5-------|
D|-----7-----------------------------------7---7---------7---------|
A|-0---0---0---0---0---0---0---0---0---0---0---0---0---0---0-------|
E|-----------------------------------------------------------------|


  2:18

e|-----------------------------------------------------------------|
B|-----5-------------------------------5---------------5-----------|
G|-------7p5---5h7-----5-----------------7p5---5h7---------------5-|
D|-----------7-------------7---5h7-----------7---------------5h7---|
A|-0---0---0---0---0---0---0---0---0---0---0---0---0---0---0---0---|
E|-----------------------------------------------------------------|


  2:25

e|-----------------------------------------------------------------|
B|-----5-------------------------------5---------------------------|
G|-------7p5---5h7-----5-----------------7p5---5-------------------| 
D|-----------7-------------7---5h7-----------7---------------------|
A|-0---0---0---0---0---0---0---0---0---0---0---0---0---------------|
E|-----------------------------------------------------------------|



Solo 2:


  2:30

e|-----------------------------------------------------------------|
B|-------8-----8-------------------------8-------------------------|
G|-7/9---------9-------------------7/9---------9/7-----------------|
D|-----------------------------------------------------------------|
A|-0---0---0---0---0---0-------0---0---0---0---0---0---0-------0---|
E|-------------------------3-------------------------------3-------|


  2:36

e|-----------------------------------------------------------------|
B|-------8-----8h10----------------------8-------------------------|
G|-7/9-----------------------------7/9---------9/7-----------------|
D|-----------------------------------------------------------------|
A|-0---0---0---0---0---0-------0---0---0---0---0---0---0---0-------|
E|-------------------------3---------------------------------------|


  2:43

e|---------------------|
B|---------------------|
G|-5-/-9-\-5-----------|
D|-------------7-5---0-|
A|-0---0---0---0---0---|
E|---------------------|



Bridge:


  2:46

e|-----------------------------------------------------------------|
B|-----5-------------------------------5---------------5/7-----7\5-|
G|-------7p5---5h7-----5-----------------7p5---5h7-----5/7-----7\5-|
D|-----------7-------------7---5h7-----------7---------------------|
A|-0---0---0---0---0---0---0---0---0---0---0---0---0---0---0---0---|
E|-----------------------------------------------------------------|


  2:53
 
e|-----------------------------------------------------------------|
B|-----5-------------------------------5---------------------------|
G|-------7p5---5h7-----5-----------------7p5---5-------------------| 
D|-----------7-------------7---5h7-----------7---------------------|
A|-0---0---0---0---0---0---0---0---0---0---0---0---0---------------|
E|-----------------------------------------------------------------|



Solo 3:


  3:00

e|-----------------------------8-----------------------8---10------|
B|-------8-----8h10----------------10--------------10--------------|
G|-7/9-------------------------------------------------------------|
D|-----------------------------------------------------------------|
A|-0---0---0---0---0---0---0---0---0---0---0---0---0---0---0-------|
E|-----------------------------------------------------------------|


  3:05
   & = 10h11p10
e|-&-----8-----8h10--------8-----8-----------------8---------------| 
B|---------10----------------10--------10--10------------------10--|
G|-----------------------------------------------------------------|
D|-----------------------------------------------------------------|
A|-0---0---0---0---0---0---0---0---0---0---0---0---0---0---0---0---|
E|-----------------------------------------------------------------|


  3:13
         & = 12        & = 8h10p8        & = 12        & = 8h10p8
e|-15----&\8---10--8---&-----------15----&\8---10--8---&-----------| 
B|-------------------------10------------------------------10------|
G|-----------------------------------------------------------------|
D|-----------------------------------------------------------------|
A|-0---0---0---0---0---0---0---0---0---0---0---0---0---0---0---0---|
E|-----------------------------------------------------------------|


  3:21
         &=12                      &'s = 17
e|-15----&\8---10--8-10--8-10--10/~&-&---&-&-&---&-&-&---&-&\0-----|
B|-----------------------------------------------------------------|
G|-----------------------------------------------------------------|
D|-----------------------------------------------------------------|
A|-0---0---0---0---0---0---0---0---0---0---0---0---0---0---0---0---|
E|-----------------------------------------------------------------|



Verse:

  3:28  
                                                             & = 7b9r7
e|-----------------------------------------------------5-----------|
B|-----5-------------------------------5---------------5-8p5-------|
G|-----5-7p5---5h7-----5-----------------7p5---5h7-----------&---5-|
D|-----------7-------------7---5h7-----------7---------------------|
A|-0---0---0---0---0---0---0---0---0---0---0---0---0---0---0---0---|
E|-----------------------------------------------------------------|


  3:35
                                  
e|---------------------------------|
B|-----5---------------------------|
G|-------7p5---5h7-----5-----------| 
D|-----------7-------------7---5h7-| x2
A|-0---0---0---0---0---0---0---0---|
E|---------------------------------|

  
  3:41
  And everywhere I go
e|-----------------------------------------------------------------|
B|-------------------------------------5---------------------------|
G|---------5---7---7-------5h7-----7-----7p5---5h7-----5-----------|
D|-----7-------------------------------------7-------------7---5h7-|
A|-0---0---0---0---0---0---0---0---0---0---0---0---0---0---0---0---|
E|-----------------------------------------------------------------|


  3:47
  They gotta think I know
e|-----------------------------------------------------------------|
B|-------------------------------------5---------------------------|
G|---------5---7---5h7p5-----------------7p5---5h7-----5-----------|
D|-----7-------------------7---7-------------7-------------7---5h7-|
A|-0---0---0---0---0---0---0---0---0---0---0---0---0---0---0---0---|
E|-----------------------------------------------------------------|


  3:56
  And everywhere I go
e|-----------------------------------------------------------------|
B|-------------------------------------5---------------------------|
G|---------5---7---7-------5h7-----5h7---7p5---5h7-----5-----------|
D|-----7-------------------------------------7-------------7---5h7-|
A|-0---0---0---0---0---0---0---0---0---0---0---0---0---0---0---0---|
E|-----------------------------------------------------------------| 


  4:03 
  They gotta think I know
e|-----------------------------------------------------------------|
B|-------------------------------------5---------------------------|
G|---------5---7---5h7p5-----------------7p5---5-------------------|
D|-----7-------------------7---7-------------7---------------------|
A|-0---0---0---0---0---0---0---0---0---0---0---0---0---------------|
E|-----------------------------------------------------------------|



Solo 4:


  4:10                                                   &=10
                                                     & =10     & = & = 8h10   
e|---------------------8-------------------------------8-----8-&---&-----------|
B|-10----8/10--10----------------------------------8/&---&---------------------|
G|-9-----------9-------------------------------------------------------9\7-0---|
D|-----------------------------------------------------------------------------|
A|-0---0---0---0---0---0---0---0---0---0---0---0---0---0---0---0---0---0---0---|
E|-----------------------------------------------------------------------------|



Verse 3:


  4:19

e|-----5-------------------------------5---------------5-------------|
B|-----5-------------------------------5---------------5-8p5---------|
G|-------7p5---5h7-----5-----------------7p5---5h7-----------&---5---|
D|-----------7-------------7---5h7-----------7-----------------------|
A|-0---0---0---0---0---0---0---0---0---0---0---0---0---0---0---0---0-|
E|-------------------------------------------------------------------|


  4:27

e|-----5-------------------------------------------------------------|
B|-----5-------------------------------5---------------5/7-----7\5---|
G|-------7p5---5h7-----5-----------------7p5---5h7-----5/7-----7\5---|
D|-----------7-------------7---5h7-----------7-----------------------|
A|-0---0---0---0---0---0---0---0---0---0---0---0---0---0---0---0---0-|
E|-------------------------------------------------------------------|


  4:33

e|-----5---------------5-----------|
B|-----5---------------5-8p5-------|
G|-------7p5---5h7-----------5-----|
D|-----------7-------------------5-|
A|-0---0---0---0---0---0---0---0---|
E|---------------------------------|


  4:38

e|-----5---------------------------|
B|-----5---------------------------|
G|-------7p5---5h7-----5-----------| X2
D|-----------7-------------7---5h7-|
A|-0---0---0---0---0---0---0---0---|
E|---------------------------------|


  4:44

e|-----5---------------|
B|-----5---------------|
G|-------7p5---5-------| 
D|-----------7---------|
A|-0---0---0---0---0---|
E|---------------------|



Solo 5:


  4:46

e|-----------------------------8---------------15----12-----15-----|
B|-----8-------8h10------------------------------------------------|
G|-7/9-----9-------------------------------------------------------|
D|-----------------------------------------------------------------|
A|-0---0---0---0---0---0---0---0---0---0---0---0---0---0---0---0---|
E|-----------------------------------------------------------------|


  4:53
   & = 12  & = 8h10p8
e|-&\8-----&-----------------------------------|
B|-----------------10------------5---5---------|
G|-------------------------9\7p5-5h7-5---------|
D|-------------------------------------7~p~5---|
A|-0---0---0---0---0---0---0---0---0---0---0---|
E|---------------------------------------------|



Outro:


  4:56

e|---------------------------------|
B|-----5---------------------------|
G|-------7p5---5h7-----5-----------| 
D|-----------7-------------7---5h7-| 
A|-0---0---0---0---0---0---0---0---|
E|---------------------------------|


  5:00

e|-----5---------------------------|
B|-----5---------------------------|
G|-------7p5---5h7-----5-----------| 
D|-----------7-------------7---5h7-|
A|-0---0---0---0---0---0---0---0---|
E|---------------------------------|


  5:04

e|-----5---------------5-----------|
B|-----5---------------5-----8---5-|
G|-------7p5---5h7---------------5-| 
D|-----------7---------------------|
A|-0---0---0---0---0---0---0---0---|
E|---------------------------------|


  5:08

e|-----5---------------------------|
B|-----5---------------------------|
G|-------7p5---7-------5-----------| 
D|-----------7-------------7-------|
A|-0---0---0---0---0---0---0---0---|
E|---------------------------------|


  5:11
  (Drums stop)
e|---------------------------------|
B|-----5---------------------------|
G|-------7p5---5h7-----5-----------| 
D|-----------7-------------7---5h7-|
A|-0---0---0---0---0---0---0---0---|
E|---------------------------------|
   *   *   *   *   *   *   *   *


  5:15

e|---------------------------------|
B|-----5---------------------------|
G|-------7p5---5h7-----5-----------| 
D|-----------7-------------7---5h7-| 
A|-0---0---0---0---0---0---0---0---|
E|---------------------------------|
   *   *   *   *   *   *   *   *


  5:18

e|-----5---------------------------|
B|-----5---------------------------|
G|-------7p5---5h7-----5-----------| 
D|-----------7-------------7---5h7-|
A|-0---0---0---0---0---0---0---0---|
E|---------------------------------|


  5:23

e|-----5-----------------------------------------|
B|-----5-----------------------------------------|
G|-------7p5---5h7--------5----------------------| 
D|-----------7-------------------7-----5-----5h7-|
A|-0---0---0---0----------0------0-----0-----0---|
E|-----------------------------------------------|


  5:29

e|-5--------------------------0------------------------5-8-|
B|-5-8~p5---------------------8/10\8--/10\8/10\8---5h8-----|
G|--------7~p5---------------------------------------------| 
D|-------------7p5-----------------------------------------|
A|-----------------7\5p3-----------------------------------|
E|-----------------------3---------------------------------|
comments
We did not receive enough feedback on this tab! Please rate:
print report bad tab
1 2 3 4 5
I want to post or [tab]
guest
You may want to rate the tab now too:
select rating
Please do not post tabs as comments. Select "correction" instead!