Oops, an error
Loading. Please wait.

Have Love Will Travel Tab

ver3
ver3

Intro

Solo

Whole song

More versions @911Tabs.com
6,450 views 267 this week
no commentswrite comment
1 2 3 4 5
excellent!
x 7
add to favorites launch autoscroll
font size
0
reset
Autoscroll
+/-
esc
set tempo
stop
Contributor
Difficulty
intermediate
WARNING: You are trying to view
                                    content from Ultimate-Guitar.com
                                    in an unauthorized application,
                                    which is prohibited.

                                    Please use an official Ultimate
                                    Guitar Tabs application for iPhone,
                                    iPad or Android to access legitimate
                                    chords, guitar, bass, and drum tabs
                                    from Ultimate-Guitar.com database.

                                    Type "ultimate guitar tabs" in Apple
                                    App Store's or Android Market's
                                    search to find the application.
                                  ~~~~~~~~~~~~~~~~~~~~~~~~~~~~~~~~~~~~~~~
                                            Have Love Will Travel
                                               The Black Keys
                                               Thickfreakness
                                  ~~~~~~~~~~~~~~~~~~~~~~~~~~~~~~~~~~~~~~~~
Tabbed by: Connor O.
Tuning: Standard


Dan hand picks it, check the video of them Live In Austin in '03 
(http://www.youtube.com/watch?v=81h0F-14QA0). Songs starts 28:10. He does a SICK 
solo there, but I'm not going to tab that (way over my head). 

Play on your neck pickup so you can get some sputtery breakup.

Comment or message any ideas or corrections. Please rate my tab. If you've got
problems with the tab, I'd encourage you to contact me with those problems so I
can fix the tab or provide advice for playing. Don't just give me a poor rating
and not give me any feedback. The idea is for us all to work together to create
a perfect finished product. This tab just represents the best I can do. It's 
definitely up for peer review.



Key:
where # represents a fret number

#h# - hammer
#p# - pull
/ \ - slides, up and down respectively.
#b# - bend from normal note up to achieve bended note.
#r# - release bend from bended note to normal note.



Intro:


  0:00

e|---------------------------------------------------------------------|
B|---------------------------------------------------------------------|
G|-------5-7---7-5-7/9---7-5-7-5-----------5-7---7-5-7/9---------------|
D|-7---7-------------------------7-5-7---7-----------------------------|
A|---------------------------------------------------------------------|
E|---------------------------------------------------------------------|



Bridge:


  0:08

e|---------------------------------------------------------------------|
B|---------------------------------------------------------------------|
G|---------------------------------------------------------------------|
D|---------------------------------------------------------------5---7-|  X2
A|-------3-5---5-3-5/7---7\5-3-5-3-----------3-5---5-3-5/7---7---------|
E|-5---5---------------------------5-3-5---5---------------------------|



Chorus:


  0:26
  If you need lovin'    Oh baby I'll travel
e|-0-0-0-0-0-0-0-0--0--------------------|
B|-5-5-5-5-5-5-5-5--5--------------------|
G|-0-0-0-0-0-0-0-0--5--------------------|
D|-6-6-6-6-6-6-6-6--4----7\5-------------|
A|-7-7-7-7-7-7-7-7--5--------3-5---------|
E|---------------------------------------|


  0:30 


e|---------------------------------------------------------------------|
B|---------------------------------------------------------------------|
G|---------------------------------------------------------------------|
D|---------------------------------------------------------------5---7-|  
A|-------3-5---5-3-5/7---7\5-3-5-3-----------3-5---5-3-5/7---7---------|
E|-5---5---------------------------5-3-5---5---------------------------|


Verse:


  0:38
  I'll travel from Maine down to Mexico
  To find that girl who loves me so
e|-----x---------x---------x-----0-------|
B|-2---x---------x---------x-----0-------|
G|-2---x-----5---x-----7---x-------------| X2
D|-2---x---------x---------x---2---------|  
A|-0---x-0-5-----x-0-7-----x-0-2---------|
E|-----x---------x---------x-------3-4-0-|
 

  0:47
  No matter where I be
e|-----x---------x---------x-----0-------|
B|-2---x---------x---------x-----0-------|
G|-2---x-----5---x-----7---x-------------| 
D|-2---x---------x---------x---2---------|  
A|-0---x-0-5-----x-0-7-----x-0-2---------|
E|-----x---------x---------x-------3-4---|
  

  0:51
  I'll find that girl she'll satisfy me
e|---------------------------------------|
B|-2----------2--------------------------|
G|-2----------2---------5/7--------------|
D|-2----------2-------------7------------|
A|-0----------0--------------------------|
E|----------5----------------------------|



Bridge:


  0:56
  Have love                             will travel
e|---------------------------------------------------------------------------|   
B|---------------------------------------------------------------------------|
G|---------------------------------------------------------------------------|
D|---------------------------------------------------------------------------|
A|-------3-3h5---5-3-5/7---7\5-3-5-3-----------3-5---5-3-5/7---7\5-3-5-3-----|
E|-5---5-----------------------------5-3-5---5---------------------------3-4-|


  1:04
  Have love                              will travel
e|---------------------------------------------------------------------------|
B|---------------------------------------------------------------------------|
G|---------------------------------------------------------------------------|
D|---------------------------------------------------------------5---7-------|  
A|-------3-5---5-3-5/7---7\5-3-5-3-----------3-5---5-3-5/7---7---------------|
E|-5---5---------------------------5-3-5---5---------------------------------|



Chorus:

  1:11
  If you need lovin'    Oh baby I'll travel
e|-0-0-0-0-0-0--0\0----------------------|
B|-5-5-5-5-5-5--8\3----------------------|
G|-0-0-0-0-0-0--0\0----------------------|
D|-6-6-6-6-6-6--9\4----------------------|
A|-7-7-7-7-7-7-10\5----------------------|
E|-----------------------------------3-4-|



Solo: 

 
  1:16

e|--------------------------------------------------------------------|
B|--------------------------------------------------------------------|
G|-7b9-----7b9-7b9-7b9-----5-7-5h7-5-----------------5---5-7-7b9r7-5--|
D|----------------------------------5h7--5h7-5---5-7---7--------------|
A|---------------------------------------------7----------------------|
E|--------------------------------------------------------------------|


  1:29

e|--------5-------5h7-5------------------10---------------------------|
B|------5---5h7-5-------8/10-8---8-10b12----12br10--------------------|
G|-7b9-------------------------9----------------------9\7-5-5h7-5-----|
D|----------------------------------------------------------------5h7-|
A|--------------------------------------------------------------------|
E|--------------------------------------------------------------------|


  1:37

e|--------------------------------------------------------------------|
B|--------------------------------------------------------------------|
G|-----------------------------7/9-7-5-7-9\7-5---5--------5-6-7-7b9r7-|
D|-5h7-5h7-5h7-5h7-5h7-5h7-5h7-----------------7----5-6-7-------------|
A|--------------------------------------------------------------------|
E|--------------------------------------------------------------------|


  1:45
                                  If you need lovin, oh baby I'll travel
e|---------------------------------8h10~--8---------------------------|
B|-------8---8h10-8h10-8h10-8h10~-------------------------------------|
G|-5-7/9---9----------------------------------------------------------|
D|----------------------------------------------5-5h7~--5h7-5---------|
A|------------------------------------------5h7---------------7-5\3---|
E|--------------------------------------------------------------------|



Bridge:


  1:54

e|---------------------------------------------------------------------------|
B|---------------------------------------------------------------------------|
G|---------------------------------------------------------------------------|
D|---------------------------------------------------------------5---7-------|  
A|-------3-5---5-3-5/7---7\5-3-5-3-----------3-5---5-3-5/7---7---------------|
E|-5---5---------------------------5-3-5---5---------------------------------|



Verse:


  2:03
  I might take a boat, might take a plane
e|-----x---------x---------x-----0-------|
B|-2---x---------x---------x-----0-------|
G|-2---x-----5---x-----7---x-------------| 
D|-2---x---------x---------x-------------|  
A|-0---x-0-5-----x-0-7-----x-------------|
E|-----x---------x---------x-5\0---3-4-0-|


  2:06
  Might hitch-hike or jump a railroad train
  Your kind of love drives a man insane
e|-----x---------x---------x-----0-------|
B|-2---x---------x---------x-----0-------|
G|-2---x-----5---x-----7---x-------------| X2
D|-2---x---------x---------x---2---------|  
A|-0---x-0-5-----x-0-7-----x-0-2---------|
E|-----x---------x---------x-------3-4-0-|


  2:14
  So look for me walkin' down any old lane
e|---------------------------------------|
B|-2-------------------------------------|
G|-2-------------------7b9~r7p5----------|
D|-2-------------------------------------|
A|-0-------------------------------------|
E|-----5-5-5-5-5-5-----------------------|



Bridge:


  2:18
  Have love                             will travel
e|---------------------------------------------------------------------------|   
B|---------------------------------------------------------------------------|
G|---------------------------------------------------------------------------|
D|---------------------------------------------------------------------------|
A|-------3-5---5-3-5/7---7\5-3-5-3-----------3-5---5-3-5/7---7\5-3-5-3-------|
E|-5---5---------------------------5-3-5---5---------------------------3-4---|


  2:27
  Have love                              will travel
e|---------------------------------------------------------------------------|
B|---------------------------------------------------------------------------|
G|---------------------------------------------------------------------------|
D|---------------------------------------------------------------5---7-------|  
A|-------3-5---5-3-5/7---7\5-3-5-3-----------3-5---5-3-5/7---7---------------|
E|-5---5---------------------------5-3-5---5---------------------------------|



Chorus:


  2:36
  If you need lovin'    Oh baby I'll travel
e|-0-0-0-0-0-0-0\0-----------------------|
B|-5-5-5-5-5-5-5\3-----------------------|
G|-0-0-0-0-0-0-0\0-----------------------|
D|-6-6-6-6-6-6-6\4---------5-------------|
A|-7-7-7-7-7-7-7\5-----3/5---5\3---------|
E|-------------------------------3-5-----|


  2:40
  Have love                              will travel
e|---------------------------------------------------------------------------|
B|---------------------------------------------------------------------------|
G|---------------------------------------------------------------------------|
D|---------------------------------------------------------------5---7-------|  
A|-------3-5---5-3-5/7---7\5-3-5-3-----------3-5---5-3-5/7---7---------------|
E|-5---5---------------------------5-3-5---5---------------------------------|


  2:48
  If you need lovin'    Oh baby I'll travel
e|-0-0-0-0-0-0-0\0-----------------------|
B|-5-5-5-5-5-5-5\3---------2------2------|
G|-0-0-0-0-0-0-0\0-7b9r5---2------2-0h2--|    
D|-6-6-6-6-6-6-6\4---------2------2------|
A|-7-7-7-7-7-7-7\5---------0------0------|
E|---------------------------------------|
I want to post or [tab]
guest
You may want to rate the tab now too:
select rating
Please do not post tabs as comments. Select "correction" instead!