Oops, an error
Loading. Please wait.

Have Mercy On Me Tab

ver3
ver3

Intro

Whole song

More versions @911Tabs.com
1,396 views 42 this week
2 commentsread comments
1 2 3 4 5
excellent!
x 4
Autoscroll
+/-
esc
set tempo
stop
Contributor
Difficulty
intermediate
Hey! There's an official Ultimate Guitar app which is ideal
for learning songs when you're away from computer. Get the app
WARNING: You are trying to view
                                    content from Ultimate-Guitar.com
                                    in an unauthorized application,
                                    which is prohibited.

                                    Please use an official Ultimate
                                    Guitar Tabs application for iPhone,
                                    iPad or Android to access legitimate
                                    chords, guitar, bass, and drum tabs
                                    from Ultimate-Guitar.com database.

                                    Type "ultimate guitar tabs" in Apple
                                    App Store's or Android Market's
                                    search to find the application.
                                   ~~~~~~~~~~~~~~~~~~~~~~~~~~~~~~~~~~~~~~~~
                                              Have Mercy On Me
                                             by: The Black Keys
                                  Chulahoma: The Songs of Junior Kimbrough
                                  ~~~~~~~~~~~~~~~~~~~~~~~~~~~~~~~~~~~~~~~~
Tabbed by: Connor O.
Tuning: Standard



Comment or message any ideas or corrections. Please rate my tab. If you've got
problems with the tab, I'd encourage you to contact me with those problems so I
can fix the tab or provide advice for playing. Don't just give me a poor rating
and not give me any feedback. The idea is for us all to work together to create
a perfect finished product. This tab just represents the best I can do. It's 
definitely up for peer review.



Key:
where # represents a fret number

#h# - hammer
#p# - pull
/ \ - slides, up and down respectively.
#b# - bend from normal note up to achieve bended note.
#r# - release bend from bended note to normal note.
#b  - a slight bend a.k.a. a curl or a lean.
 x  - mute
 ~  - Extend. Play a hammer or pull-off over a longer time period
 *  - time keeper. if you played a steady
      baseline, you'd see the notes are 
      displayed in the tab in the correct 
      chronological order. 
 &  - symbol substitution, for when symbols (like double digits)
      are too large to fit in with the time keepers.


Intro:


  0:00

e|---------------------------------0h2-0---------------------------|
B|---------------------------------------2p0-------0h2-------------|
G|--------------------------0-2b---------------0h2-----0h2p0-------|
D|----------------------0h2----------------------------------2-----|
A|------------------0h2--------------------------------------------|
E|-12\---3~b5r3b5--------------------------------------------------|


  0:13

e|-----------------------------------------------------------------|
B|-----------------------------------------------------------------|
G|---------0-------0h2-0---0---------------0-----------------------|
D|-----0h2---------------2-------------0h2-----2p0-----------------|
A|-0h2-----------------------------0h2-------------2p0-------------|
E|-----------------------------------------------------3b----------|
   *   *   *   *   *   *   *   *   *   *   *   *   *   *   *   *   


Bridge:


  0:19

e|-----------------------------------------------------------------|
B|-----------------------------------------------------------------|
G|-----------------0-------0---------------------------------------|
D|---------2-0-----0---2---0---2-----------------------0-------0---|
A|-------------2---------------------------0-----0-----0---0h2-----|
E|-0-------------------------------3---------3-----3-----3---------|
   *   *   *   *   *   *   *   *   *   *   *   *   *   *   *   *  

  0:25

e|-----------------------------------------------------------------|
B|-----------------------------------------------------------------|
G|-------------------------0---------------------------------------|
D|---------2-0-----0---2---0---2---------------------------0-------|
A|-------------2---------------------------0-----0-----0h2---2-----|
E|-0-------------------------------3---------3-----3-----------3---|
   *   *   *   *   *   *   *   *   *   *   *   *   *   *   *   *

  0:31
               & = 0h2
e|-----------------------------------------------------------------|
B|-----------------------------------------2---------------x-------|
G|-------------------0---------------------2---------2-----x-------|
D|---------------0-2---2p0-----------------2-----2---------x-2-----|
A|-------------&-----------2p0-----0-------0---------------x-------|
E|-0---------------------------3b------------------------------3b--|
   *   *   *   *   *   *   *   *   *   *   *   *   *   *   *   *  



e|-------------------0-2-0---------|
B|---------2-------3-0-2-0-3p0-----|
G|---------2-------3-----------2p0-|
D|---------2-----------------------|
A|-0-------0---0-------------------|
E|---------------------------------|
   *   *   *   *   *   *   *   * 

  0:40

e|-----------------------------------------------------------------|
B|-----------------------------------------------------------------|
G|-------------------------0---------------------------------------|
D|---------2-0-----0---2---0---2-----------------------------------|
A|-------------2---------------------------0-----0-----0-----0-----|
E|-0-------------------------------3---------3-----3-----3-----3---|
   *   *   *   *   *   *   *   *   *   *   *   *   *   *   *   *

  0:46

e|-----------------------------------------------------------------|
B|-----------------------------------------------------------------|
G|---------------------------0-------------------------------------|
D|---------2-0-----0---2---0---2---------------------------0-------|
A|-------------2---------------------------0-----0-----0h2---2-----|
E|-0-------------------------------3---------3-----3-----------3---|
   *   *   *   *   *   *   *   *   *   *   *   *   *   *   *   *

  0:53

e|-----------------------------------------------------------------|
B|---------------------0---------------0---0---0-0---0-0-----0-0---|
G|---------------------0---------------2---2---2-2---2-2-----2-2---|
D|-----------------0h2-----2p0---------1---1---1-1---1-1-----1-1---|
A|-------------0h2-------------2p0-2---2---2---2-2---2-2-----2-2---|
E|-0---------------------------------------------------------------|
   *   *   *   *   *   *   *   *   *   *   *   *   *   *   *   * 

  0:58

e|-----------------------------------------------------------------|
B|---------2-----2-----2-----2-------------------------------------|
G|---------2-----2-----2-----2-------------------------------------|
D|---------2-----2-----2-----2---------0h2-0-----------------------|
A|-0-------0-----0-----0-----0-----0-----------2---0---------------|
E|-----------------------------3b----------------------3b--0---3b--|
   *   *   *   *   *   *   *   *   *   *   *   *   *   *   *   * 

  1:01
  (less intense playing from here on out)
e|-----------------------------------------------------------------|
B|-----------------------------------------------------------------|
G|-------------------------0---------------------------------------|
D|---------2-0-----0---2-------2-------------------------------0---|
A|-------------2---------------------------0-----0-----0---0h2-----|
E|-0-------------------------------3---------3-----3-----3---------|
   *   *   *   *   *   *   *   *   *   *   *   *   *   *   *   *  

  1:10

e|-----------------------------------------------------------------|
B|-----------------------------------------------------------------|
G|-----------------------------0-----------------------------------|
D|---------2-0-----0-------x---------------------------------------|
A|-------------2-----------x---------------0---0-------0---0h2-----|
E|-0-----------------------x-------3---------3-----3-----3-----3b--|
   *   *   *   *   *   *   *   *   *   *   *   *   *   *   *   *


Verse 1:


  1:16
                                                 Done anybody wrong
e|-----------------------------------------------------------------|
B|-----------------------------------------2-----------2-----2-----|
G|---------------------0-------------------2-----------2-----2-----|
D|-----------------0h2-----2p0-------------2-----2-----2-----2-----|
A|-------------0h2-------------2---0-------0-----------0-----0-----|
E|-0-----------------------------------------------------------3b--|
   *   *   *   *   *   *   *   *   *   *   *   *   *   *   *   * 

  1:22

e|-------------------------------------------------0h2-0-----------|
B|---------2---2-2-----2-----------------------------------3p0-----|
G|---------2---2-2-----2---------------------------------------2p0-|
D|---------2---2-2-----2-------------------------------------------|
A|-0-------0---0-0-----0---------------0---------------------------|
E|-----------------------------3b----------------------------------|
   *   *   *   *   *   *   *   *   *   *   *   *   *   *   *   *

  1:28

e|-----------------------------------------------------------------|
B|-----------------------------------------------------------------|
G|-------------------------0---------------------------------------|
D|---------2-0-----0---2-------2-------------------------------0---|
A|-------------2---------------------------0-----0-----0---0h2-----|
E|-0-------------------------------3---------3-----3-----3---------|
   *   *   *   *   *   *   *   *   *   *   *   *   *   *   *   *  

  1:34
                           &=0h2p0
e|-----------------------------------------------------------------|
B|-----------------------------------------------------------------|
G|-------------------------&---------------------------------------|
D|---------2-0-----0---2-------2-----------------------------------|
A|-------------2---------------------------0-----0-----0-----0-----|
E|-0-------------------------------3---------3-----3-----3-----3---|
   *   *   *   *   *   *   *   *   *   *   *   *   *   *   *   *

  1:41          
               Done anybody    wro-ong                       
e|-----------------------------------------------------------------|
B|---------------------------------------------------------2-2-----|
G|---------------------0-----------------------------2-----2-2-----|
D|-----------------0h2-----2p0-------------------2---------2-2-----|
A|-------------0h2-------------2---0-----------------------0-0-----|
E|-0---------------------------------------------------------------|
   *   *   *   *   *   *   *   *   *   *   *   *   *   *   *   *

  1:47
                                               Havemercy   on
e|-----------------------------------------------------------------|
B|---------2-----2-----2-----2-------------2-----------------------|
G|---------2-----2-----2-----2-------------2-----------------------|
D|---------2-----2-----2-----2-------------2-------0h2-0-----------|
A|-0-------0-----0-----0-----0-----0-------0-------------2-0-------|
E|-----------------------------3b----------------------------3-----|
   *   *   *   *   *   *   *   *   *   *   *   *   *   *   *   * 

  1:53
               me
e|-----------------------------------------------------------------|
B|-----------------------------------------------------------------|
G|-------------------------0---------------------------------------|
D|---------2-0-----0---2-------2-------------------------------0---|
A|-------------2---------------------------0-----0-----0---0h2-----|
E|-0-------------------------------3---------3-----3-----3---------|
   *   *   *   *   *   *   *   *   *   *   *   *   *   *   *   *  

  1:59
                           &=0h2p0
e|-----------------------------------------------------------------|
B|-----------------------------------------------------------------|
G|-------------------------&---------------------------------------|
D|---------2-0-----0---2-------2---------------------------0-------|
A|-------------2---------------------------0-----0-----0h2---2-----|
E|-0-------------------------------3---------3-----3-----------3---|
   *   *   *   *   *   *   *   *   *   *   *   *   *   *   *   *

  2:05
               Never did anybody wrong                             
e|-----------------------------------------------------------------|
B|-----------------------------------------0-----0-----0-----0-0---|
G|---------------------0-------------------2-----2-----2-----2-2---|
D|-----------------0h2-----2p0-------------1-----1-----1-----1-1---|
A|-------------0h2-------------2p0-2-------2-----2-----2-----2-2---|
E|-0---------------------------------------------------------------|
   *   *   *   *   *   *   *   *   *   *   *   *   *   *   *   *

  2:11
                                           Have    mercy   on    me
e|-----------------------------------------------------------------|
B|---------2-----2-----2-----2-------------------------------------|
G|---------2-----2-----2-----2-------------------------------------|
D|---------2-----2-----2-----2-----------------0h2-0---------------|
A|-0-------0-----0-----0-----0-----0-----------------2---------0---|
E|-----------------------------3b--------------------------3b------|
   *   *   *   *   *   *   *   *   *   *   *   *   *   *   *   *


Solo:


  2:17

e|-3h5-----------------5/7-3-5---3-5/7-3p0-----------------3-5-----|
B|-----------------------------------------3-----------3-5-----3---|
G|-----------------------------------------------------------------|
D|-----------------------------------------------------------------|
A|-----------------------------------------------------------------|
E|-----------------------------------------------------------------|
   *   *   *   *   *   *   *   *   *   *   *   *   *   *   *   *

  2:23
 
e|---------------------------------------------------------3-------|
B|-3h5-------------------3-5-----------------------3---5-------5---|
G|-------------0-2/4-4-------4\2-0h2-----------2/4-----------------|
D|-----------------------------------------------------------------|
A|-----------------------------------------------------------------|
E|-----------------------------------------------------------------|
   *   *   *   *   *   *   *   *   *   *   *   *   *   *   *   *

  2:29

e|-----5-------3---5/7-3p0-3h5-3~p~0---10--7\5\3---3h5-----3p0-3---|
B|-----------------------------------------------------------------|
G|-----------------------------------------------------------------|
D|-----------------------------------------------------------------|
A|-----------------------------------------------------------------|
E|-----------------------------------------------------------------|
   *   *   *   *   *   *   *   *   *   *   *   *   *   *   *   *

  2:35

e|-----3~h~5---3h5-3h5-3h5-3h5-3---5h6p5p3-----3-------------------|
B|-----------------------------------------5---------------3-------|
G|-----------------------------------------------------------------|
D|-----------------------------------------------------------------|
A|-----------------------------------------------------------------|
E|-----------------------------------------------------------------|
   *   *   *   *   *   *   *   *   *   *   *   *   *   *   *   *
                                               
  2:41                                                 &=10/12
                                               &=&=&=&=10    &=10p7
e|---------3-----------3~h~5---3---0-----------&-&-&-&-&---7-&-7\3-|
B|-3h5-----5-------------------------------------------------------|
G|-----------------------------------------------------------------|
D|-----------------------------------------------------------------|
A|-----------------------------------------------------------------|
E|-----------------------------------------------------------------|
   *   *   *   *   *   *   *   *   *   *   *   *   *   *   *   *

  2:47

e|-3h5-----5/7-3h5-0---3-0-----------------3-------3---3---3---3---|
B|-------------------------3---3---3h5-------------5---5---5---5---|
G|-----------------------------------------------------------------|
D|-----------------------------------------------------------------|
A|-----------------------------------------------------------------|
E|-----------------------------------------------------------------|
   *   *   *   *   *   *   *   *   *   *   *   *   *   *   *   *

  2:54

e|-3---3---3---3---3---3---3---3---3---3h5-3---0-------------------|
B|-3h5-5---5---5---3---3---3---3---5---------------3---------------|
G|-----------------------------------------------------2/4-0---2---|
D|-----------------------------------------------------------------|
A|-----------------------------------------------------------------|
E|-----------------------------------------------------------------|
   *   *   *   *   *   *   *   *   *   *   *   *   *   *   *   *

  3:00

e|-----------------------------------------3---5---3-0-------------|
B|---------3-------3h5---------------------------------3-------3---|
G|-2h4-----------------------------------------------------2/4-----|
D|-----------------------------------------------------------------|
A|-----------------------------------------------------------------|
E|-----------------------------------------------------------------|
   *   *   *   *   *   *   *   *   *   *   *   *   *   *   *   *

  3:06

e|-------------------------3---------------------------------------|
B|-3h5-----5-3-0---3---5-------5---0---------------------------3---|
G|-----------------------------------------2p0-2---0---2p0-2/4-----|
D|-----------------------------------------------------------------|
A|-----------------------------------------------------------------|
E|-----------------------------------------------------------------|
   *   *   *   *   *   *   *   *   *   *   *   *   *   *   *   *

  3:12
                           &=3h5p3                         &=2/4\2
e|-------------------------&---------------------------------------|
B|---------5-3-0---3---5-------5-----------------------------------|
G|---------------------------------2-------2p0-2---0---2p0-&~~p0---|
D|-----------------------------------------------------------------|
A|-----------------------------------------------------------------|
E|-----------------------------------------------------------------|
   *   *   *   *   *   *   *   *   *   *   *   *   *   *   *   *

  3:18

e|---------------------------------------------------------3-------|
B|-------------------------3---5-----------------------3h5-----5---|
G|-------------0---2---2/4---------4\2-------------2/4-------------|
D|-2-------2-------------------------------------------------------|
A|-----------------------------------------------------------------|
E|-----------------------------------------------------------------|
   *   *   *   *   *   *   *   *   *   *   *   *   *   *   *   *

  3:24

e|-----------------3---5---5/7-3p0-------------------------3/5-----|
B|-3h5-----------------------------3h5---------5/8-----------------|
G|-----------------------------------------------------------------|
D|-----------------------------------------------------------------|
A|-----------------------------------------------------------------|
E|-----------------------------------------------------------------|
   *   *   *   *   *   *   *   *   *   *   *   *   *   *   *   *

  3:31

e|-5/7\5\3-3/5-------------------------------------3/5\3/5-5/7\3---|
B|-----------------8\5-----3/5\3p0-3/5-----5/8---------------------|
G|-----------------------------------------------------------------|
D|-----------------------------------------------------------------|
A|-----------------------------------------------------------------|
E|-----------------------------------------------------------------|
   *   *   *   *   *   *   *   *   *   *   *   *   *   *   *   *

  3:36

e|-3/5-----------------5/7-3---3h5---------------------------------|
B|---------------------------------------------3---3h5-------------|
G|-----------------------------------------------------------------|
D|-----------------------------------------------------------------|
A|-----------------------------------------------------------------|
E|-----------------------------------------------------------------|
   *   *   *   *   *   *   *   *   *   *   *   *   *   *   *   *

  3:42

e|-------------0h2-0-----------------------------------------------|
B|-------------------2p0-------------------2---------------x-------|
G|-------------------------2p0-------------2---------2-----x-2-----|
D|-----------------------------2-----------2-----2---------x-------|
A|---------------------------------0-------0---------------x-------|
E|-------------------------------------------------------------3---|
   *   *   *   *   *   *   *   *   *   *   *   *   *   *   *   *


Outro:


  3:46

e|-----------------------------------------------------------------|
B|---------2---------------x---------------2-----------------------|
G|---------2---------2-----x---------------2---------------0-------|
D|---------2-----2---------x-2-------------2-----------0h2---2p0---|
A|-0-------0---------------x-------0-------0-------0h2-------------|
E|-----------------------------3-----------------------------------|
   *   *   *   *   *   *   *   *   *   *   *   *   *   *   *   * 

  3:56

e|-----------------------------------------------------------------|
B|-----------------------------------------------------------------|
G|-------------------------0---------------------------------------|
D|---------2-0-----0---2-------2---------------------------0-------|
A|-------------2---------------------------0-----0-----0h2---2-----|
E|-0-------------------------------3---------3-----3-----------3---|
   *   *   *   *   *   *   *   *   *   *   *   *   *   *   *   *

  4:01

e|-----------------------------------------------------------------|
B|-----------------------------------------------------------------|
G|-------------------------0---------------------------------------|
D|---------2-0-----0---2-------2-------------------------0---------|
A|-------------2---------------------------0-----0---0h2---2p0-----|
E|-0-------------------------------3---------3-----3-----------3---|
   *   *   *   *   *   *   *   *   *   *   *   *   *   *   *   *

  4:08
                             &=2p0
e|-----------------------------------------------------------------|
B|-----------------------------------------2---------------2-2-----|
G|-----------------------------------------2---------2-----2-2-----|
D|-----------------0h2-----0---------------2-----2---------2-2-----|
A|-------------0h2-----------&-----0-------0---------------0-0-----|
E|-0---------------------------3b------------------------------3b--|
   *   *   *   *   *   *   *   *   *   *   *   *   *   *   *   *

  4:14
                                             
e|-----------------------------------------------------------------|
B|---------2---------------2-2-------------2---2-2-----------------|
G|---------2---------2-----2-2-------------2---2-2-----------------|
D|---------2-----2---------2-2-------------2---2-2-----------------|
A|-0-------0---------------0-0-----0-------0---0-0---0h2p0-2p0-----|
E|-----------------------------3b-------------------------------3b-|
   *   *   *   *   *   *   *   *   *   *   *   *   *   *   *   * 

  4:20

e|-----------------------------------------------------------------|
B|-----------------------------------------------------------------|
G|-------------------------0---------------------------------------|
D|---------2-0-----0---2-------2-------------------------------0---|
A|-------------2---------------------------0---0-------0---0h2-----|
E|-0-------------------------------3---------3-----3-----3---------|
   *   *   *   *   *   *   *   *   *   *   *   *   *   *   *   * 

  4:26

e|-----------------------------------------------------------------|
B|-----------------------------------------------------------------|
G|-------------------------0---------------------------------------|
D|---------2-0-----0---2-------2-----------------------------------|
A|-------------2---------------------------0---0-------0-----------|
E|-0-------------------------------3---------3-----3-----3-----0---|
   *   *   *   *   *   *   *   *   *   *   *   *   *   *   *   * 

  4:32
  (Hard to say, sounds like a G)
e|-----------------------------------------------------------------|
B|-----------------------------------------------------------------|
G|-------------------------------------------------------------0---|
D|-----------------------------------------------------------------|
A|-----------------------------------------------------------------|
E|-----------------------------------------------------------------|
   *   *   *   *   *   *   *   *   *   *   *   *   *   *   *   * 
comments
print report bad tab
2 comments total.
0 reply
Macstudly wrote on November 4 2014, 04:33 pm

I haven't worked all the way thru it yet, but it appears pretty darn close.

0 reply
coman91 wrote on November 4 2014, 04:51 pm

Thanks for the feedback man, please just let me know if you find that I missed a note or skipped beat and I can fix it.

I want to post or [tab]
guest
You may want to rate the tab now too:
select rating
Please do not post tabs as comments. Select "correction" instead!