Oops, an error
Loading. Please wait.

Have Mercy On Me Tab

ver3
ver3

Intro

Whole song

More versions @911Tabs.com
484 views 18 this week
no commentswrite comment
1 2 3 4 5
excellent!
x 1
add to favorites launch autoscroll
font size
0
reset
Autoscroll
+/-
esc
set tempo
stop
Contributor
Difficulty
intermediate
WARNING: You are trying to view
                                    content from Ultimate-Guitar.com
                                    in an unauthorized application,
                                    which is prohibited.

                                    Please use an official Ultimate
                                    Guitar Tabs application for iPhone,
                                    iPad or Android to access legitimate
                                    chords, guitar, bass, and drum tabs
                                    from Ultimate-Guitar.com database.

                                    Type "ultimate guitar tabs" in Apple
                                    App Store's or Android Market's
                                    search to find the application.
                                   ~~~~~~~~~~~~~~~~~~~~~~~~~~~~~~~~~~~~~~~~
                                              Have Mercy On Me
                                             by: The Black Keys
                                  Chulahoma: The Songs of Junior Kimbrough
                                  ~~~~~~~~~~~~~~~~~~~~~~~~~~~~~~~~~~~~~~~~
Tabbed by: Connor O.
Tuning: Standard



Like with all other Chulahoma songs, it's hard to know if this is exactly
how it's played as there is no live footage (that I could find) of it
being played. Also like other Chulahoma (Kimbrough in general, really)
songs, it's just following a certain pattern on a scale.

That being said, I'm confident in this tab's accuracy because it's
easy for me to play it this way and it sounds spot on with the
recorded version.

As for the solo, all of the notes are right but you may be able to play it
at different locations on the fret board.

Comment or message any ideas or corrections. Please rate my tab. If you've got
problems with the tab, I'd encourage you to contact me with those problems so I
can fix the tab or provide advice for playing. Don't just give me a poor rating
and not give me any feedback. The idea is for us all to work together to create
a perfect finished product. This tab just represents the best I can do. It's 
definitely up for peer review.



Key:
where # represents a fret number

#h# - hammer
#p# - pull
/ \ - slides, up and down respectively.
#b# - bend from normal note up to achieve bended note.
#r# - release bend from bended note to normal note.
=== - under boxes, represents the use of a guitar slide
#b  - slight bend, a curl.



Intro:


  0:00

e|---------------------------------0h2-0------------------------|
B|---------------------------------------2p0-------0h2----------|
G|--------------------------0-2b---------------0h2-----0h2p0----|
D|----------------------0h2----------------------------------2--|
A|------------------0h2-----------------------------------------|
E|-12\---3~b5r3b5-----------------------------------------------|


  0:13

e|--------------------------------------------------------------|
B|--------------------------------------------------------------|
G|---------0---0h2-0---0-----------0----------------------------|
D|-----0h2-----------2---------0h2---2p0------------------------|
A|-0h2---------------------0h2-----------2p0--------------------|
E|-------------------------------------------3b-----------------|



Bridge:


  0:19

e|--------------------------------------------|
B|--------------------------------------------|
G|---------------0----------------------------|
D|-----2-0---0-2---2-------------0-------0----|
A|---------2-------------0---0---0---0h2------|
E|-0-----------------3-----3---3---3----------|


  0:25

e|--------------------------------------------|
B|--------------------------------------------|
G|---------------0----------------------------|
D|-----2-0---0-2---2-------------------0------|
A|---------2-------------0---0-----0h2---2----|
E|-0-----------------3-----3---3-----------3--|


  0:31

e|-----------------------------------------------------0-0h2-0----------|
B|------------------------------2------------------2---0-0h2-0-2p0------|
G|-------------0----------------2---2---2----------2---------------2p0--|
D|---------0-2---2p0------------2-2-------2--------2--------------------|
A|-----0h2-----------2p0----0---0--------------0---0--------------------|
E|-0---------------------3b-----------------3b--------------------------|


  0:40

e|-------------------------------------------|
B|-------------------------------------------|
G|---------------0---------------------------|
D|-----2-0---0-2---2-------------------------|
A|---------2-------------0---0---0---0-------|
E|-0-----------------3-----3---3---3---3-----|


  0:46

e|--------------------------------------------------|
B|--------------------------------------------------|
G|-------------------0------------------------------|
D|-----2-0---0-2-0-----2-------------------0--------|
A|---------2-----------------0---0-----0h2---2------|
E|-0---------------------3-----3---3-----------3-0--|


  0:53

e|-----------------------5-5-5-5-5-5-5-5-3-3-3-3-3-3----3-------------|
B|---------0-------------4-4-4-4-4-4-4-4-2-2-2-2-2-2----2-------------|
G|---------0-------------4-4-4-4-4-4-4-4-2-2-2-2-2-2----2-------------|
D|-----0h2---2p0---------4-4-4-4-4-4-4-4-2-2-2-2-2-2----2-------------|
A|-0h2-----------2p0-2-------------------0-0-0-0-0-0----0-------------|
E|---------------------------------------------------3b---------------|


  1:01
  (less intense playing from here on out)
e|--------------------------------------------------------------------|
B|--------------------------------------------------------------------|
G|--------------------------------0-----------------------------------|
D|-0h2-0----------------2-0---0-2---2-------------------------0-------|
A|-------2-0----------------2-------------0---0-------0---0h2---------|
E|-----------3-0-3-0------------------3-----3-----3-----3-------------|


  1:10

e|-----------------------------------------------|
B|-----------------------------------------------|
G|---------------0-------------------------------|
D|-----2-0---0-----0-----------------------------|
A|---------2-------------0---0-------0---0h2-----|
E|-0-----------------3-----3-----3-----3-----3-0-|



Verse:


  1:19
  Done anybody wrong
e|-----------------------------------------------------0h2-0----------|
B|---------------------2------------------2---2--------------3p0------|
G|---------0-----------2---2---2----------2---2------------------2p0--|
D|-----0h2---2p0-------2-2-------2--------2-2-2-----------------------|
A|-0h2-----------2-0---0--------------0---0---0----0------------------|
E|---------------------------------3b-----------3b--------------------|


  1:28

e|----------------------------------------------|
B|----------------------------------------------|
G|---------------0------------------------------|
D|-----2-0---0-2---2-------------------------0--|
A|---------2-------------0---0-------0---0h2----|
E|-0-----------------3-----3-----3-----3--------|


  1:34

e|----------------------------------------------|
B|----------------------------------------------|
G|---------------0h2p0--------------------------|
D|-----2-0---0-2-------2------------------------|
A|---------2-----------------0---0---0---0------|
E|-0---------------------3-----3---3---3---3-0--|


  1:41
  Done anybody wrong                                 Have mercy on me
e|--------------------------------------------------------------------|
B|-------------------------2-2--------2---2---2------2----------------|
G|---------0-------------2-2-2--------2---2---2------2----------------|
D|-----0h2---2p0-------2---2-2--------2-2-2---2------2---0h2-0--------|
A|-0h2-----------2-0-------0-0----0---0---0---0----0-0---------2p0----|
E|-----------------------------3b---------------3b-----------------3--|


  1:53

e|----------------------------------------------|
B|----------------------------------------------|
G|---------------0------------------------------|
D|-----2-0---0-2---2-------------------------0--|
A|---------2-------------0---0-------0---0h2----|
E|-0-----------------3-----3-----3-----3--------|


  1:59

e|----------------------------------------------|
B|----------------------------------------------|
G|---------------0h2p0--------------------------|
D|-----2-0---0-2-------2-----------------0------|
A|---------2-----------------0---0---0h2---2----|
E|-0---------------------3-----3---3---------3--|


  2:05
      Never did anybody wrong                                Have mercy on me
e|-------------------------5-5-5-5-5-5-5-5-3-3-3-3-3-3-3----3------------------|
B|-------------------------4-4-4-4-4-4-4-4-2-2-2-2-2-2-2----2------------------|
G|-------------0-----------4-4-4-4-4-4-4-4-2-2-2-2-2-2-2----2------------------|
D|---------0h2---2p0-------4-4-4-4-4-4-4-4-2-2-2-2-2-2-2----2---0h2-0----------|
A|-----0h2-----------2p0-2-----------------0-0-0-0-0-0-0----0---------2----0---|
E|-0-----------------------------------------------------3b-------------3b---0-|



Solo:


  2:17

e|-3h5------5/7-3-5-3-5/7-3-----------3-5-----------------------------|
B|--------------------------5-3---3-5-----3-3h5-----------3-5---------|
G|------------------------------------------------0-2/4-4-----4\2-0h2-|
D|--------------------------------------------------------------------|
A|--------------------------------------------------------------------|
E|--------------------------------------------------------------------|


  2:27

e|---------3--------5--3-5/7-3---3h5-3~p0---10-7\5\3-3h5-3---3-3~h5---|
B|-----3-5---5-----------------5---------------------------5----------|
G|-2/4----------------------------------------------------------------|
D|--------------------------------------------------------------------|
A|--------------------------------------------------------------------|
E|--------------------------------------------------------------------|


  2:36

e|-3h5-3h5-3h5-3h5-3-5h6p5p3---3-----------3---3~h5-3-0---10-10-10-10-|
B|---------------------------5-----3--3h5--5--------------------------|
G|--------------------------------------------------------------------|
D|--------------------------------------------------------------------|
A|--------------------------------------------------------------------|
E|--------------------------------------------------------------------|


  2:46

e|-10/12-7-10p7-7\3-3h5--7-3h5-----3-------------3---3-3-3-3-3---3-3-3-3-|
B|-----------------------------5-----5-3-3-3h5-------5-5-5-5-3h5-5-5-5-5-|
G|-----------------------------------------------------------------------|
D|-----------------------------------------------------------------------|
A|-----------------------------------------------------------------------|
E|-----------------------------------------------------------------------|


  2:55

e|-3-3-3-3-3-3h5-3--------------------------------3--5--3----------------|
B|-3-3-3-3-5-------5-3---------------3---3h5--------------5-3-----3-3h5--|
G|---------------------2/4-0-2-2h4----------------------------2/4--------|
D|-----------------------------------------------------------------------|
A|-----------------------------------------------------------------------|
E|-----------------------------------------------------------------------|


  3:07

e|-----------3----------------------------------|
B|-5-3-0-3-5---5-0-------------------3----------|
G|-------------------2p0-2-0-2p0-2/4------------|
D|----------------------------------------------|
A|----------------------------------------------|
E|----------------------------------------------|


  3:12

e|-----------3h5p3------------------------------|
B|-5-3-0-3-5-------5----------------------------|
G|-------------------2---2p0-2-0-2p0-2/4\2p0----|
D|-------------------------------------------2--|
A|----------------------------------------------|
E|----------------------------------------------|


  3:19

e|--------------------------------3------------3-5-5/7-3--------------|
B|-----------3-5--------------3h5---5-3h5----------------5-3h5--------|
G|---0-2-2/4-----4\2------2h4-----------------------------------------|
D|-2------------------------------------------------------------------|
A|--------------------------------------------------------------------|
E|--------------------------------------------------------------------|


  3:29

e|-------3/5---5/7\5\3-3h5-----------------------------3/5\3/5--5/7\3-|
B|-5/8-----------------------8\5---3h5p3p0-3/5--5~/8------------------|
G|--------------------------------------------------------------------|
D|--------------------------------------------------------------------|
A|--------------------------------------------------------------------|
E|--------------------------------------------------------------------|


  3:37

e|-3/5------5/7-3-3/5------------------------0h2-0--------------------|
B|-------------------------3-3h5-------------------3p0----------------|
G|-----------------------------------------------------2p0------------|
D|-----------------------------------0---2-----------------2----------|
A|-------------------------------0h2----------------------------------|
E|--------------------------------------------------------------------|



Outro:


  3:46

e|--------------------------------------------------------------------|
B|-----2------------------2------------------2------------------------|
G|-----2---2---2----------2---2---2----------2-----------0------------|
D|-----2-2-------2--------2-2-------2--------2-------0h2---2-0--------|
A|-0---0--------------0---0--------------0---0---0h2------------------|
E|-----------------3b-----------------3b------------------------------|


  3:56

e|----------------------------------------------|
B|----------------------------------------------|
G|---------------0------------------------------|
D|-----2-0---0-2---2-------------------0--------|
A|---------2-------------0---0-----0h2---2------|
E|-0-----------------3-----3---3-----------3----|


  4:01

e|----------------------------------------------|
B|----------------------------------------------|
G|---------------0------------------------------|
D|-----2-0---0-2---2-----------------0----------|
A|---------2-------------0---0---0h2---2p0------|
E|-0-----------------3-----3---3-----------3----|


  4:08

e|---------------------------------------------------------------------------------|
B|---------------------------2------------------2------------------2---------------|
G|---------------------------2---2---2----------2---2---2----------2-2-------------|
D|---------0h2---0-----------2-2-------2--------2-2-------2--------2-------0-------|
A|-----0h2---------2p0---0---0--------------0---0--------------0---2---0h2---2p0---|
E|-0-------------------3-----------------3b-----------------3b-------------------3-|


  4:20

e|----------------------------------------------|
B|----------------------------------------------|
G|---------------0------------------------------|
D|-----2-0---0-2---2-------------------------0--|
A|---------2-------------0---0-------0---0h2----|
E|-0-----------------3-----3-----3-----3--------|


  4:26

e|----------------------------------------------|
B|----------------------------------------------|
G|---------------0------------------------------|
D|-----2-0---0-2---2----------------------------|
A|---------2-------------0---0-------0----------|
E|-0-----------------3-----3-----3-------3b---0-|


  4:38
  (Hard to say, sounds like a G)
e|---|
B|---|
G|-0-|
D|---|
A|---|
E|---|
comments
We did not receive enough feedback on this tab! Please rate:
1 2 3 4 5
I want to post or [tab]
guest
You may want to rate the tab now too:
select rating
Please do not post tabs as comments. Select "correction" instead!