Oops, an error
Loading. Please wait.

Howlin For You Bass Tab

ver2
ver2

Whole song

Interactive

More versions @911Tabs.com
9,043 views 42 this week
4 commentsread comments
1 2 3 4 5
excellent!
x 10
Autoscroll
+/-
esc
set tempo
stop
Contributor
Difficulty
novice
Hey! There's an official Ultimate Guitar app which is ideal
for learning songs when you're away from computer. Get the app
WARNING: You are trying to view
                                    content from Ultimate-Guitar.com
                                    in an unauthorized application,
                                    which is prohibited.

                                    Please use an official Ultimate
                                    Guitar Tabs application for iPhone,
                                    iPad or Android to access legitimate
                                    chords, guitar, bass, and drum tabs
                                    from Ultimate-Guitar.com database.

                                    Type "ultimate guitar tabs" in Apple
                                    App Store's or Android Market's
                                    search to find the application.
Noticed the other tab was a little off, but it gave me just enough to work off of that I 
could figure it out. Thanks to Jeremy Lake, who tabbed this previously, just a few 
errors though, thats all ;)

Main Riff:
G|-------------|
D|-------------|
A|----5h7------|
E|--7-----0----|

Interlude:
"Baby Im Howlin' For You..."
G|---------------------|
D|---------------------|
A|----5h7--------------|
E|--7-----7--5--3----0-|
                  ^short break there

Chorus: (x2)
"Da Da, Da Da Da..."
G|---------0-------------------------2-0--------------|
D|-----0h2---2------0h2----------0h2---------0--------|
A|---2------------2------------2-----------2---2------|
E|----------------------3-0----------------------3-0--|

Chorus Con't:
G|--------------------------------------------|
D|----0------------------------------5h7p5----|
A|--2-----5h7--77-77-77-77-77-77-77--------7--|
E|--------------------------------------------|

and thats the entire song!
Enjoy!
comments
print report bad tab
4 comments total. Showing first comments.
0 reply
Tanner Streeter wrote on June 13 2012, 04:14 am

Is this played with slight distortion?

+1 reply
Guitarist_67 wrote on August 14 2012, 06:59 pm

Yes of course!

+1 reply
Bassprogman wrote on February 13 2013, 07:12 pm

More than slight

I want to post or [tab]
guest
You may want to rate the tab now too:
select rating
Please do not post tabs as comments. Select "correction" instead!