Oops, an error
Loading. Please wait.

Cruel Melody Tab

ver1
ver1

Album

Whole song

More versions @911Tabs.com
2,522 views 3 this week
6 commentsread comments
1 2 3 4 5
accurate
x 7
Autoscroll
+/-
esc
set tempo
stop
Contributor
Difficulty
intermediate
WARNING: You are trying to view
                                    content from Ultimate-Guitar.com
                                    in an unauthorized application,
                                    which is prohibited.

                                    Please use an official Ultimate
                                    Guitar Tabs application for iPhone,
                                    iPad or Android to access legitimate
                                    chords, guitar, bass, and drum tabs
                                    from Ultimate-Guitar.com database.

                                    Type "ultimate guitar tabs" in Apple
                                    App Store's or Android Market's
                                    search to find the application.
-----------------------------------------------------------------------------------------
                      Cruel Melody Album - Black Light Burns
-----------------------------------------------------------------------------------------


Tabbed By: Stephen McFall (all tabs are entirely my own work)
Email: smboo28@aim.com
Effects Needed in order to play all guitar parts: Distortion (Triple Rectifier is what
uses), Delay (Boss RV-3 Reverb & Delay is what he uses), Reverb (all reverbs on this
are Chamber style reverbs & are also produced through his RV-3), Auto-Wah (He uses a DOD 
Envelope Filter)
Borland gets all his distortions through 3 Mesa Boogie Triple Rectifiers
Borland gets all his cleans through 3 Roland JC-120 Jazz Chorus 2X12 Combo Amplifiers

Track-listing: 01. Mesopotamia
               02. Animal
               03. Lie
               04. Coward
               05. Cruel Melody
               06. The Mark
               07. I Have A Need
               08. 4 Walls
               09. Stop A Bullet
               10. One Of Yours
               11. New Hunger
               12. I Am Where It Takes Me
               13. Iodine Sky


01.     Mesopotamia


Tuning: Gtr. 1 & 2 1 & ½ steps down Drop D low to High (B,F#,B,E,G#,C#)

Intro Pt. 1 Gtr. 1 (Distorted)
C#|---------------------------------------------------------------------------|
G#|---------------------------------------------------------------------------|
 E|---------------------------------------------------------------------------|
 B|-7-------------------------------------------------------------------------|
F#|-5-(Just play this over and over for a long time)--------------------------|
 B|-0-------------------------------------------------------------------------|

Intro Pt. 2 Gtr. 1 (Distorted) play 2x
C#|---------------------------------------------------------------------------|
G#|---------------------------------------------------------------------------|
 E|---------------------------------------------------------------------------|
 B|---------------------------------7-7-7-7-7-7-7-7-7-7-7-7-7-7-7-7-----------|
F#|---------------------------------5-5-5-5-5-5-5-5-5-5-5-5-5-5-5-5-----------|
 B|-3-3-3-3-3-3-3-3-2-2-2-2-1-1-1-1-0-0-0-0-0-0-0-0-0-0-0-0-0-0-0-0-----------|

Verse 1 Gtr. 1 (Distorted) play 2x
C#|---------------------------------------------------------------------------|
G#|---------------------------------------------------------------------------|
 E|---------------------------------------------------------------------------|
 B|-7-------3-------7---------------------------------------------------------|
F#|-5-(x32)-3-(x16)-5-(x16)---------------------------------------------------|
 B|-0-------3-------0---------------------------------------------------------|

 Pre-Chorus Gtr. 1 & 2 (Distorted) |play 3 1\2x (4th time play only stuff before line)
C#|--------------------------------|-------------------------------------------|
G#|--------------------------------|-------------------------------------------|
 E|--------------------------------|-------------------------------------------|
 B|-6-6-6-6-6-6-6-6-2-2-2-2-3-3-3-3|-7-7-7-7-7-7-7-7-7-7-7-7-7-7-7-7-----------|
F#|-6-6-6-6-6-6-6-6-2-2-2-2-3-3-3-3|-5-5-5-5-5-5-5-5-5-5-5-5-5-5-5-5-----------|
 B|-6-6-6-6-6-6-6-6-2-2-2-2-3-3-3-3|-0-0-0-0-0-0-0-0-0-0-0-0-0-0-0-0-----------|

Play Intro Pt. 1 again
Then after a bit play Intro Pt. 2 1 time minus the last 16 0-5-7’s then play this

Interlude Pt. 1 Gtr. 1 & 2 (Distorted) play 12x
C#|---------------------------------------------------------------------------|
G#|---------------------------------------------------------------------------|
 E|-7-7-7-7-x-10-10-10-x-5-x-5-x-5-5-6----------------------------------------|
 B|-7-7-7-7-x-10-10-10-x-5-x-5-x-5-5-6----------------------------------------|
F#|-5-5-5-5-x-8--8--8--x-3-x-3-x-3-3-4----------------------------------------|
 B|---------------------------------------------------------------------------|

Play Pre-Chorus again

Interlude Pt. 2 Gtr. 1 (Overdrive + Heavy Delay) (Something like this) All of this has a
light Palm Mute on it until the final repeated notes of the 2nd line
C#|-2--2--2-2-2-(x4)-5-5-555-555555-6-6-66-6-666666--2--2--2-2-2--2--2--2-2-2-|
G#|---------------------------------------------------------------------------|
 E|---------------------------------------------------------------------------|
 B|---------------------------------------------------------------------------|
F#|---------------------------------------------------------------------------|
 B|---------------------------------------------------------------------------|
Then TP TP TP TP TP TP TP TP TP TP  TP
C#|--5--6--5--6--5--6--8--6--8--10--11-----(10-11--)-(play 9x fade out)-------|
G#|-------------------------------------7--(------7)--------------------------|
 E|---------------------------------------------------------------------------|
 B|---------------------------------------------------------------------------|
F#|---------------------------------------------------------------------------|
 B|---------------------------------------------------------------------------|
Then
C#|-2--2--22-2-222222(x2)-5-5-55-5-555555-6-6-66-6-666666--play whole line 2x-|
G#|---------------------------------------------------------------------------|
 E|---------------------------------------------------------------------------|
 B|---------------------------------------------------------------------------|
F#|---------------------------------------------------------------------------|
 B|---------------------------------------------------------------------------|
Then
C#|-8--8--88-8-888888-6-6-66-6-666666-5-5-22-2-222222--2-2-22-2-222222--------|
G#|---------------------------------------------------------------------------|
 E|---------------------------------------------------------------------------|
 B|---------------------------------------------------------------------------|
F#|---------------------------------------------------------------------------|
 B|---------------------------------------------------------------------------|
 Then                 TP    TP
C#|-8--8--88-8-888888-10----11------------------------------------------------|
G#|------------------------------7--------------------------------------------|
 E|---------------------------------------------------------------------------|
 B|---------------------------------------------------------------------------|
F#|---------------------------------------------------------------------------|
 B|---------------------------------------------------------------------------|

Interlude Pt. 2 Gtr. 2 (Distortion) play this 30x
C#|---------------|
G#|---------------|
 E|x-x-xx-x-xxxxxx|
 B|x-x-xx-x-xxxxxx|
F#|---------------|
 B|---------------|

Then both guitars play Interlude Pt. 1 8x

Then both guitars play this
C#|-------|
G#|-------|
 E|-------|
 B|7------|
F#|5-(x32)|
 B|0------|

Just before end Gtr. 3 (silent through the rest of the song does a pickslide down the F#
low B strings, however, if this was played live one of the two guitarists would just do
instead of playing the B5 at the end

02.     Animal

Tuning: Gtr. 1 & 2 are in 1 step down Drop D low to high (C,G,C,F,A,D)
This is the only song on this CD in this tuning also I guarantee the correctness of this
as I have watched them play it live and both guitarists switched guitars and it was
in this tuning so don’t tell me Im wrong just cause Borland usually doesn’t play in this
cause I know that. By the way live Guitar 1 is Annis and Guitar 2 is Borland

Guitar is silent during both verses + Intro

Pre-Chorus Gtr. 1 (Distorted) play 2x
D|-----0------0----0---0----0-----0-----0-5---0---0---------------------------|
A|----------------------------------------------------3-----------------------|
F|----------------------------------------------------------------------------|
C|----------------------------------------------------------------------------|
G|-------------------0---02---------------------------------------------------|
C|-0-2---2-5-----0------------0-2---2-5-----0---0---0-------------------------|
PM * *   * *     *   *   **   * *   * *     *   *   *

Pre-Chorus Gtr. 2 (Distorted) play 3x with Palm Mutes and 1x without
D|---------------------------------------------------------------------------|
A|---------------------------------------------------------------------------|
F|---------------------------------------------------------------------------|
C|-0-2---2b3r2---0---2-2b3r2---0---2-----------------------------------------|
G|-----0-------0---0---------0---0-------------------------------------------|
C|---------------------------------------------------------------------------|
PM * * * *     * * * * *     * * * *
Chorus Gtrs. 1 & 2 (Distorted) play 2x for First Chorus This is 100% correct.
D|---------------------------------------------------------------------------|
A|--------------------10~----------------------------------------------------|
F|--------------------9~-----------------------------------------------------|
C|-2~~~--5~~~--12~~~--7~~~---------------------------------------------------|
G|-2~~~--5~~~--12~~~--7~~~---------------------------------------------------|
C|-2~~~--5~~~--12~~~--7~~~---------------------------------------------------|

Then for 2nd Verse guitars are silent again

Then repeat Pre-Chorus

Then play Chorus riff 4x for 2nd Chorus

Bridge Gtr. 1 (Distorted) play line 1 once then play line 2 3x
D|-----0------0---0---0----0-----0-----0-5---0--5-0---xx----------------------|
A|----------------------------------------------------xx-3--------------------|
F|----------------------------------------------------xx-2--------------------|
C|----------------------------------------------------xx-0--------------------|
G|------------------0----0----------------------------xx----------------------|
C|-0-2---2-5----0-------0------2---2-5-----0----0-----xx----------------------|
PM * *   * *    *   *   **     *   * *     *    *


D|-----0------0---0---0----0-----0-----0-5---0--5-0--xx----------------------|
A|---------------------------------------------------xx-3--------------------|
F|---------------------------------------------------xx-2--------------------|
C|---------------------------------------------------xx-0--------------------|
G|------------------0----0---------------------------xx----------------------|
C|--2----2-5----0-------0------2---2-5-----0-----0---xx----------------------|
PM  *    * *    *   *   **     *   * *     *     *

Guitar 2 is silent during bridge

Then play Chorus Riff 4x for Final Chorus

Outro Gtr. 1 (Distorted) play Over and Over and fade out
D|---------------------------------------------------------------------------|
A|---------------------------------------------------------------------------|
F|---------------------------------------------------------------------------|
C|-0-2---2b3r2---0-----------------------------------------------------------|
G|-----0-------0---0---------------------------------------------------------|
C|---------------------------------------------------------------------------|
PM * * * *     * * *

Guitar 2 is silent for Outro but could double Gtr. 1 part

03.     Lie

Tuning: Gtrs. 1, 2, & 3 are in 1 & ½ steps down Drop D low to high (B,F#,B,E,G#,C#)

Intro/Verse Gtr. 1 (Distorted + Delay) (quietly) play 1x for intro then play 2x for
1 this
all Tremolo picked
C#|--17--18-17-15--14-17-18-17-15----------------------------------------------------|
G#|-------------------------------15-------------------------------------------------|
 E|----------------------------------------------------------------------------------|
 B|----------------------------------------------------------------------------------|
F#|----------------------------------------------------------------------------------|
 B|----------------------------------------------------------------------------------|

Verse Gtr. 2 (Clean) This begins at the beginning of the Verse and plays along in higher
with the bass. Play all 2x
C#|----------------------------------------------------------------------------------|
G#|----------------------------------------------------------------------------------|
 E|----------------------------------------------------------------------------------|
 B|-0-(x32)-1-(x16)-----------0-(x32)-1-(x16)--------5-(x4)-1-(x4)-------------------|
F#|-----------------3-(x16)-------------------3-(x8)---------------------------------|
 B|----------------------------------------------------------------------------------|

Pre-Chorus 1 Gtr. 1 & 2 (Distorted)
C#|----------------------------------------------------------------------------------|
G#|----------------------------------------------------------------------------------|
 E|----------------------------------------------------------------------------------|
 B|-0-0-0-0-0-0-0-0--3-3-3-3-3-3-3-6-6-6-6-6-6-6-6--1-1-1-1-1-1-1--------------------|
F#|-0-0-0-0-0-0-0-0--3-3-3-3-3-3-3-6-6-6-6-6-6-6-6--1-1-1-1-1-1-1--------------------|
 B|-0-0-0-0-0-0-0-0--3-3-3-3-3-3-3-6-6-6-6-6-6-6-6--1-1-1-1-1-1-1--------------------|
PM  * * * * * * * *  * * * * * * * * * * * * * * *  * * * * * * *
then
C#|----------------------------------------------------------------------------------|
G#|----------------------------------------------------------------------------------|
 E|----------------------------------------------------------------------------------|
 B|-0-0-0-0-0-0-0-0--3-3-3-3-3-3-3-6-6-6-6-6-6-6-6--1--1--1--1-----------------------|
F#|-0-0-0-0-0-0-0-0--3-3-3-3-3-3-3-6-6-6-6-6-6-6-6--1--1--1--1-----------------------|
 B|-0-0-0-0-0-0-0-0--3-3-3-3-3-3-3-6-6-6-6-6-6-6-6--1--1--1--1-----------------------|
PM  * * * * * * * *  * * * * * * * * * * * * * * *

Chorus Gtr. 1 (Distorted) I guarantee this riff is there you just gotta listen for it.
this 4x for First Chorus
C#|----------------------------------------------------------------------------------|
G#|----------------------------------------------------------------------------------|
 E|----------------------------------------------------------------------------------|
 B|-0~-0-0-0-3~-3-3-3-6~-6-6-6--1--1--1--1-------------------------------------------|
F#|-0~-0-0-0-3~-3-3-3-6~-6-6-6--1--1--1--1-------------------------------------------|
 B|-0~-0-0-0-3~-3-3-3-6~-6-6-6--1--1--1--1-------------------------------------------|

Chorus Gtr. 2 (Distorted) This part is louder than Gtr. 1’s. play this 4x for 1st Chorus
C#|----------------------------------------------------------------------------------|
G#|----------------------------------------------------------------------------------|
 E|----------------------------------------------------------------------------------|
 B|-0-0-0-0-0-0-0-0-0-3-3-3-3-3-3-3-6-6-6-6-6-6-6-6--1--1--1--1----------------------|
F#|-0-0-0-0-0-0-0-0-0-3-3-3-3-3-3-3-6-6-6-6-6-6-6-6--1--1--1--1----------------------|
 B|-0-0-0-0-0-0-0-0-0-3-3-3-3-3-3-3-6-6-6-6-6-6-6-6--1--1--1--1----------------------|
Then end on
 B|0------------|
F#|0 and cut off|
 B|0------------|

Gtr. 1 & 2 play Verse 2 exactly as they played Verse 1

Pre-Chorus 2 Gtrs. 1 & 2 (Distorted)
C#|----------------------------------------------------------------------------------|
G#|----------------------------------------------------------------------------------|
 E|----------------------------------------------------------------------------------|
 B|-0-0-0-0-0-0-0-0--3-3-3-3-3-3-3-6-6-6-6-6-6-6-6--1--1--1--1-----------------------|
F#|-0-0-0-0-0-0-0-0--3-3-3-3-3-3-3-6-6-6-6-6-6-6-6--1--1--1--1-----------------------|
 B|-0-0-0-0-0-0-0-0--3-3-3-3-3-3-3-6-6-6-6-6-6-6-6--1--1--1--1-----------------------|
PM  * * * * * * * *  * * * * * * * * * * * * * * *

Then both guitars play Chorus 2 exactly as Chorus 1 plus Gtr. 2’s riff 2 more times
(those last 2 extra times are both guitars playing guitar 2’s riff)

Interlude Gtr. 1 (Distorted)
C#|----------------------------------------------------------------------------------|
G#|----------------------------------------------------------------------------------|
 E|----------------------------------------------------------------------------------|
 B|----------------------------------------------------------------------------------|
F#|----------------------------------------------------------------------------------|
 B|-3-0-0-/12-0-0-6-5-0-3-5-3-0-3\0-0-0-0-3-0-3\0-0-0-0------------------------------|
Then play this 2nd bar 3x                 play all 1x for Interlude and 1x for Guitar solo
C#|----------------------------------------------------------------------------------|
G#|----------------------------------------------------------------------------------|
 E|----------------------------------------------------------------------------------|
 B|----------------------------------------------------------------------------------|
F#|----------------------------------------------------------------------------------|
 B|-3-0-/12-0-12p7-0-6-5-0-3-5-3-0-3\0-0-0-0-3-0-3\0-0-0-0---------------------------|
This is exactly how Nick annis plays it live

Interlude Gtr. 2 (Distorted) play 4x for Interlude
C#|----0--------0--------0--------0--------------------------------------------------|
G#|----0--------0--------0--------0--------------------------------------------------|
 E|----0--------0--------0--------0--------------------------------------------------|
 B|----------------------------------------------------------------------------------|
F#|----------------------------------------------------------------------------------|
 B|----------------------------------------------------------------------------------|
I only noticed this part cause one of my headphones is broken so you cant hear the other
part. lol

Guitar Solo Gtr. 2 (Distorted) (This part is played by Annis live)
C#|----------13----------------13----12-12h13h15--------------------------------|
G#|-----------------------------------------------------------------------------|
 E|-12h14h15----14-14-12h14h15----15-------------15-15-14-14-14-14-14-14-14-14--|
 B|-----------------------------------------------------------------------------|
F#|-----------------------------------------------------------------------------|
 B|-----------------------------------------------------------------------------|
Then                      TP= Tremolo Pick
C#|-15-15-17-17-18-18-20(TP)-18(TP)-17(TP)-14(TP)------------------------------------|
G#|----------------------------------------------------------------------------------|
 E|----------------------------------------------------------------------------------|
 B|----------------------------------------------------------------------------------|
F#|----------------------------------------------------------------------------------|
 B|----------------------------------------------------------------------------------|
Then
C#|----------------------------------------------------------------------------------|
G#|-13-14-10-10-10-10-11-10-10-10-14-10-10-15----------------------------------------|
 E|----------------------------------------------------------------------------------|
 B|----------------------------------------------------------------------------------|
F#|----------------------------------------------------------------------------------|
 B|----------------------------------------------------------------------------------|
Then
C#|-15-15-15-14-10-15-14-10-15-15-15-14-10-------------------------------------------|
G#|----------------------------------------13b15~-13-15-15~-13-15--------------------|
 E|----------------------------------------------------------------------------------|
 B|----------------------------------------------------------------------------------|
F#|----------------------------------------------------------------------------------|
 B|----------------------------------------------------------------------------------|
Then
C#|-141414-15-18-17-16-17-18-17-18-19-18-19-20-19-20-21-20-21-22-22~-----------------|
G#|----------------------------------------------------------------------------------|
 E|----------------------------------------------------------------------------------|
 B|----------------------------------------------------------------------------------|
F#|----------------------------------------------------------------------------------|
 B|----------------------------------------------------------------------------------|

Guitar Solo Gtr. 3 (Distorted) (Live this part is played by Borland)
C#|-------1-----------1---0-0h1h3----------------------------------------------------|
G#|----------------------------------------------------------------------------------|
 E|-0h2h3---2-2-0h2h3---3--------3-3-2-2-2-2-2-2-2-2---------------------------------|
 B|----------------------------------------------------------------------------------|
F#|----------------------------------------------------------------------------------|
 B|----------------------------------------------------------------------------------|
Then
C#|----------------------------------------------------------------------------------|
G#|----------------------------------------------------------------------------------|
 E|-0-0-2-2-3-3-5(TP)-3(TP)-2(TP)----------------------------------------------------|
 B|-------------------------------4(TP)----------------------------------------------|
F#|----------------------------------------------------------------------------------|
 B|----------------------------------------------------------------------------------|
Then
C#|----------------------------------------------------------------------------------|
G#|-----15-15-15-15-16-15-15-15-19-15-15-20------------------------------------------|
 E|-5-6------------------------------------------------------------------------------|
 B|----------------------------------------------------------------------------------|
F#|----------------------------------------------------------------------------------|
 B|----------------------------------------------------------------------------------|
Then
C#|-18-18-18-17-14-18-17-14-18-18-18-17-14-20-20-20-20-21\---------------------------|
G#|----------------------------------------------------------------------------------|
 E|----------------------------------------------------------------------------------|
 B|---------------------------------------------------------10-12-12~-10-12----------|
F#|----------------------------------------------------------------------------------|
 B|----------------------------------------------------------------------------------|
Then
C#|-------------------------------------14-15-17-14-14-18-17~------------------------|
G#|-------------13-11-15-13-15-16-15-13----------------------------------------------|
 E|-12-11-12-14----------------------------------------------------------------------|
 B|----------------------------------------------------------------------------------|
F#|----------------------------------------------------------------------------------|
 B|----------------------------------------------------------------------------------|

Gtr. 2 & 3’s solos are matched up to make it easier

For Final Chorus Gtrs. 1 & 2 play their respective Chorus 1 riffs 2x each

Final Chorus Gtr. 3 (Distortion + pre-distortion Auto-Wah & Delay) play 2x (This comes
halfway through final Chorus)
This is all Tremolo Picked
C#|----------------------------------------------------------------------------------|
G#|----------------------------------------------------------------------------------|
 E|--5/-7---/10-\7-------------------------------------------------------------------|
 B|----------------------------------------------------------------------------------|
F#|----------------------------------------------------------------------------------|
 B|----------------------------------------------------------------------------------|

Outro Gtrs. 1 & 2 (Distorted)
C#|-------------------------------------------------------|
G#|-------------------------------------------------------|
 E|-------------------------------------------------------|
 B|-/12-0-12p7-0-6-5-0-3-5-3-0-3\0-0-0-0-3-0-3\0-0-0-0-3-0|
F#|-/12-0-12p7-0-6-5-0-3-5-3-0-3\0-0-0-0-3-0-3\0-0-0-0-3-0|
 B|-/12-0-12p7-0-6-5-0-3-5-3-0-3\0-0-0-0-3-0-3\0-0-0-0-3-0|
Play this line 4x then Gtr. 1 ends song on
 B|/12-|
F#|/12-| Cut Off
 B|/12-|
 Guitar 2 ends on this
C#|0-|
G#|0-| Cut Off
 E|0-|

Outro Gtr. 3 (Distorted + pre-distortion Auto-Wah & Delay) this is all Tremolo Picked.
C#|-10b11r10--14---------------------------------------------------------------------|
G#|-x---------x----------------------------------------------------------------------|
 E|-7-b8-r7---11---------------------------------------------------------------------|
 B|----------------------------------------------------------------------------------|
F#|----------------------------------------------------------------------------------|
 B|----------------------------------------------------------------------------------|
Play all 4x then end on
C#|10|
G#|x-| Cut Off
 E|7-|

The End


04.     Coward

Tuning: Gtrs. 1, 2, & 3 are in 1 & ½ steps down Drop D Tuning.
low to High (B,F#,B,E,G#,C#)

Intro Riff Gtrs. 1 & 2 (Distorted) play 4x
C#|-------------------------------------------------------------------------|
G#|-------------------------------------------------------------------------|
 E|-------------------------------------------------------------------------|
 B|-0-2-0----0-2-5-2-0----0-0-2-3-2-0----0-2-0-0-3--------------------------|
F#|-0-2-0-/7-0-2-5-2-0-/7-0-0-2-3-2-0-/7-0-2-0-0-3--------------------------|
 B|-0-2-0----0-2-5-2-0----0-0-2-3-2-0----0-2-0-0-3--------------------------|
PM                        *

Verse Riff Gtr. 1 (Distorted) play 4x This is 100% correct notes Borland may play it a
way but these are definitely the correct notes  BTW This is played with Neck Pickup
C#|---------------10----------5---------------------------------------------|
G#|-----7---------10----------5---------------------------------------------|
 E|-----9------14----14-0---------------------------------------------------|
 B|---9---9-----------------7---7-----9-7-----------------------------------|
F#|-7-------10------------5-------5-5-----7-9/10----------------------------|
 B|-------------------------------------------------------------------------|


Pre-Chorus Gtr. 1 (Distorted) play 4x
C#|-------------------------------------------------------------------------|
G#|-------------------------------------------------------------------------|
 E|-------------------------------------------------------------------------|
 B|-----5-2-2-2-5-2--2--0-2-------------------------------------------------|
F#|-------------------------------------------------------------------------|
 B|-2-2---------------------------------------------------------------------|
PM  * * * * * * * *  *  * *

Pre-Chorus Gtr. 2 (Distorted + Envelope Filter/Auto-Wah) play once. This comes in just
the Chorus.
These are even eight notes played on beats N-2-N-3-N-4------------------------|N
C#|-10-10-10-10-10-10-10------------------------------------------------------|
G#|---------------------------------------------------------------------------|
 E|---------------------------------------------------------------------------|
 B|---------------------------------------------------------------------------|
F#|---------------------------------------------------------------------------|
 B|---------------------------------------------------------------------------|

Chorus Gtrs. 1 & 2 (Distorted) play 4x
C#|-------------------------------------------------------------------------|
G#|-------------------------------------------------------------------------|
 E|-------------------------------------------------------------------------|
 B|-2-2-2-2-2-2-2-2-2-5-5-5-5-5-5-5-0-0-0-0-0-0-0-0-0-0-0-0-0-0-0-0---------|
F#|-2-2-2-2-2-2-2-2-2-5-5-5-5-5-5-5-0-0-0-0-0-0-0-0-0-0-0-0-0-0-0-0---------|
 B|-2-2-2-2-2-2-2-2-2-5-5-5-5-5-5-5-0-0-0-0-0-0-0-0-0-0-0-0-0-0-0-0---------|

Gtr. 1 plays the Verse Riff 2x for the Guitar Break

Guitar Break Gtr. 2 (Distorted + delay)
C#|-------------------------------------------------------------------------|
G#|-9-10-12-12-12-13-12-10-12-10-8-7-7-7-8-10-5-5-5-3-5-5-------------------|
 E|-------------------------------------------------------------------------|
 B|-------------------------------------------------------------------------|
F#|-------------------------------------------------------------------------|
 B|-------------------------------------------------------------------------|
Then                           last note is more of a rake across the 3 strings
C#|-------------------------------------------------------------------------|
G#|---------------------------7---8---10---12----13----12-------------------|
 E|-1-2-4-4-4-4h5-4-2-4-2-0---------------------------x---------------------|
 B|-------------------------4---5---7----9----10-----9----------------------|
F#|-------------------------------------------------------------------------|
 B|-------------------------------------------------------------------------|

Gtr. 1 plays Verse Riff 4x for 2nd Verse
Gtr. 2 tacet for 2nd Verse

Gtrs. 1 & 2 play Pre-Chorus 2 the same way as Pre-Chorus 1

Gtrs. 1 & 2 play Chorus 2 the same way as Chorus 1

Interlude Pt. 1 Gtr. 1 (Distorted) play 8x
This part gets improvised a bit with more or less muted notes
C#|-------------------------------------------------------------------------|
G#|-------------------------------------------------------------------------|
 E|-xx-9-9-9-xx-12-12-12-xx-7-xx-7-xxxx-7-9---------------------------------|
 B|-xx-9-9-9-xx-12-12-12-xx-7-xx-7-xxxx-7-9---------------------------------|
F#|-xx-7-7-7-xx-10-10-10-xx-5-xx-5-xxxx-5-7---------------------------------|
 B|-------------------------------------------------------------------------|


Interlude Pt. 1 Gtr. 2 (Distorted) comes in halfway through
C#|-------------------------------------------------------------------------|
G#|-12-8-12-10p8p7-10-8p7p5-8-3-3-3-3/5-5-----------------------------------|
 E|-------------------------------------------------------------------------|
 B|-------------------------------------------------------------------------|
F#|-------------------------------------------------------------------------|
 B|-------------------------------------------------------------------------|
then
C#|-------------------------------------------------------------------------|
G#|-12-8-12-10p8p7-10-8p7p5-8-3-3-3-3/5-0-----------------------------------|
 E|-------------------------------------------------------------------------|
 B|-------------------------------------------------------------------------|
F#|-------------------------------------------------------------------------|
 B|-------------------------------------------------------------------------|
then
C#|-------------------------------------------------------------------------|
G#|-12-8-12-10p8p7-10-8p7p5-8-3-3-3-3/5-5-5-5-3-5-0~~-5-3-5-0~~~------------|
 E|-------------------------------------------------------------------------|
 B|-------------------------------------------------------------------------|
F#|-------------------------------------------------------------------------|
 B|-------------------------------------------------------------------------|


Interlude Pt. 1 Gtr. 3 (Distorted + light Delay)
C#|-19-15-19-17p15p14-17-15p14p12-15-10-10-10-10/12-12----------------------|
G#|-------------------------------------------------------------------------|
 E|-------------------------------------------------------------------------|
 B|-------------------------------------------------------------------------|
F#|-------------------------------------------------------------------------|
 B|-------------------------------------------------------------------------|
then
C#|-19-15-19-17p15p14-17-15p14p12-15-10-10-10-10/12-7-----------------------|
G#|-------------------------------------------------------------------------|
 E|-------------------------------------------------------------------------|
 B|-------------------------------------------------------------------------|
F#|-------------------------------------------------------------------------|
 B|-------------------------------------------------------------------------|
then
C#|19-15-19-17p15p14-17-15p14p12-15-10-10-10-10/12-12-12-12-10-12-7-7-7~-12-10-12-7~|
G#|---------------------------------------------------------------------------------|
 E|---------------------------------------------------------------------------------|
 B|---------------------------------------------------------------------------------|
F#|---------------------------------------------------------------------------------|
 B|---------------------------------------------------------------------------------|


Interlude Pt. 2 Gtr. 1 (Distorted) play 2x This starts when singing comes in
C#|-------------------------------------------------------------------------|
G#|-------------------------------------------------------------------------|
 E|-------------------------------------------------------------------------|
 B|---------------5-5-5-5-5-5-5-5-7-7-7-7-7-7-7-7-7-11-11-11-11-11-11-11-11-|
F#|-7-7-7-7-7-7-7-----------------------------------------------------------|
 B|-------------------------------------------------------------------------|
PM  * * * * * * * * * * * * * * * * * * * * * * * * *  *  *  *  *  *  *  *


Interlude Pt. 2 Gtr. 2 (Distorted) play 2x
C#|-------------------------------------------------------------------------|
G#|-------------------------------------------------------------------------|
 E|-9-9-9-9-9-9-9-9-9-9-9-9-9-9-9-9-9-9-9-9-9-9-9-9-9-9-9-9-9-9-9-9---------|
 B|-9-9-9-9-9-9-9-9-9-9-9-9-9-9-9-9-9-9-9-9-9-9-9-9-9-9-9-9-9-9-9-9---------|
F#|-7-7-7-7-7-7-7-7-7-7-7-7-7-7-7-7-7-7-7-7-7-7-7-7-7-7-7-7-7-7-7-7---------|
 B|-------------------------------------------------------------------------|
PM  * * * * * * * * * * * * * * * * * * * * * * * * * * * * * * * *


Interlude Pt. 2 Gtr. 3 (Distorted + Envelope Filter/Auto Wah) This comes in just before
Chorus
C#|-0-0-0-0-0-0-0-0-0-0-0-0-10-10-10-10-------------------------------------|
G#|-------------------------------------------------------------------------|
 E|-------------------------------------------------------------------------|
 B|-------------------------------------------------------------------------|
F#|-------------------------------------------------------------------------|
 B|-------------------------------------------------------------------------|

Gtrs. 1, 2, & 3 play Chorus Riff 8x for last Chorus

Gtrs. 1, 2, & 3 play Intro Riff 1x for Outro


05.     Cruel Melody

Tuning: Drop D low to high (D,A,D,G,B,e)

This song can be played In 1 & ½ steps down Drop D (B,F#,B,E,G#,C#) tuning with a capo
the 3rd fret if you want to play it this way simply play the song the exact same with
making this numbers in relation to the capo. Note: BLB usually does this for the
guitar when playing live. Also the Acoustic guitar could be tuned to standard tuning except
the bottom string wouldn’t be truly correct during the bridge when they strike open
but that’s so minor I really doubt anyone would ever notice.

Intro Riff Gtr. 2 (Clean w/ Echo) Turn up volume knob while playing this
E|-------------------------|
B|-------------------------|
G|-------------------------|
D|-h10p7-h10p7-h10p7-h10p7-|
A|-------------------------|
D|-------------------------|

Verse Riff Gtr. 2 (Clean w/ Echo) play 12x for Pre-Verse then play 8x for 1st Verse
This is exactly how Annis plays it live
e|---------------------------------------------------------------------------|
B|---------------------------------------------------------------------------|
G|---------------------------------------------------------------------------|
D|-----------------10--12-10-------------------------------------------------|
A|-----12-------12-----------------------------------------------------------|
D|-0-0----0-0-3--------------------------------------------------------------|

Chorus Gtr. 1 (Acoustic) play 2x This is exactly how Borland plays it live
e|-1-0-2-4-3----------------|
B|-1-1-3-4-3----------------|
G|-2-2-2-5-4----------------|
D|-3-2-0-6-5----------------|
A|-3-0-0-6-5----------------|
D|-3---0-6-5----------------|

Chorus Gtr. 2 (Clean w/ Echo) play 2x
e|x---x--x--x---x--x--|
B|x---x--x--x---x--x--|
G|10~-9~-7~~x---x--x--|
D|x---x--x--10~-10-9~~|
A|x---x--x--x---x--x--|
D|x---x--x--x---x--x--|

Then Break that is just Bass and effects

Then 2nd Verse equals Verse riff 8x

Then play through Chorus again

Bridge Pt. 1 Gtr. 1 (Acoustic) play 8x This is 100% correct and the highest note on the
Chord is played on the fret (so it doesn’t come out much)
e|-7-7-7-777-3-3-3-30-----------------------0--------|
B|-7-7-7-777\3-3-3-30-1010101010/13-13-13-130--------|
G|-7-7-7-777\3-3-3-30-1010101010/13-13-13-130--------|
D|-7-7-7-777\3-3-3-30-1010101010/13-13-13-130--------|
A|-5-5-5-555\1-1-1-10-8-8-8-888-/11-11-11-110--------|
D|------------------0-----------------------0--------|

Bridge Pt.2 Gtr. 2(Distorted) play 4x for Bridge Pt.2 then play 4x for Bridge Pt. 3
e|-------------------------------------------------|
B|-7-7-7-777\33-3-3p0-10-10-10-101010/1313-13-13p0-|
G|-------------------------------------------------|
D|-------------------------------------------------|
A|-------------------------------------------------|
D|-------------------------------------------------|

Bridge Pt. 2 Gtr. 3 (Distorted) play 4x For Bridge Pt. 2 then play 4x For Bridge Pt. 3
e|----------------------------------------|
B|----------------------------------------|
G|-7-7-7-777\33-3-3-----------------------|
D|-7-7-7-777\33-3-3-3-3-3-333/66-6-66-----|
A|-5-5-5-555\11-1-1-3-3-3-333/66-6-66-----|
D|------------------3-3-3-333/66-6-66-----|

Bridge Pt. 3 Gtr. 4 (Distorted w/ Reverb) play 4x
e|----------------------------------------------------------------|
B|--3-/15-15-15~~----------------------------This note is Clean---|
G|---------------3-3~/15-14--------1-1~/13~-(11~~~)-last time only|
D|--------------------------3~-/15~-------------------------------|
A|----------------------------------------------------------------|
D|----------------------------------------------------------------|

Ending Gtr. 4 (Clean w/ Echo)
e|---x----x---x--x---x--x----x--x------x----x----x-----|
B|---x----x---x--x---x--x----x--x------x----x----x-----|
G|---x---13~-13-12~-12-10~\9-9~-7~~~--13~~-12~~-10~~~~-|
D|--12~---x---x--x---x--x----x--x------x----x----x-----|
A|---x----x---x--x---x--x----x--x------x----x----x-----|
E|---x----x---x--x---x--x----x--x------x----x----x-----|

06. The Mark


Tuning: Gtrs. 1 & 2 are in C# Standard (Standard Borland) low to High (C#,F#,B,E,G#,C#)


Intro Gtr. 1 (Clean) play once for Intro Pt. 1
C#|-----------------------------------------------------------------------|
G#|-----------------------------------------------------------------------|
 E|-9-9-9-9-9-9-9-9-9-9-9-9-9-9-9-9-9-9-9-9-9-9-9-9-9-9-9-9-9-9-9-9-------|
 B|-----------------------------------------------------------------------|
F#|-----------------------------------------------------------------------|
C#|-----------------------------------------------------------------------|

Verse Riff Gtr. 1 (Clean) play 2x for Intro Pt. 2 then play 4x for Verse 1
C#|-----------------------------------------------------------------------|
G#|-----------------------------------------------------------------------|
 E|-9-9-9-9-9-9-9-9-12-12-12-12-12-12-12-12-7-7-9-9--7-7-9-9---7-7-9-9-0--|
 B|-----------------------------------------------------------------------|
F#|-----------------------------------------------------------------------|
C#|-----------------------------------------------------------------------|

Verse Riff Gtr. 2 (Distorted) play 2x for Intro Pt. 2 then play 4x for Verse 1
C#|-----------------------------------------------------------------------|
G#|-----------------------------------------------------------------------|
 E|-----------------------------------------------------------------------|
 B|-2-2--2-2-2--2-5-5--5-5-5--55-8-8-2-2--8-8-2-2---8-8-2-2-0-------------|
F#|-2-2--2-2-2--2-5-5--5-5-5--55-8-8-2-2--8-8-2-2---8-8-2-2-0-------------|
C#|-0-0--0-0-0--0-3-3--3-3-3--33-6-6-0-0--6-6-0-0---6-6-0-0-0-------------|
PM  * *  * * *  * * *  * * *  ** * * * *  * * * *   * * * * *

Chorus Gtrs. 1 & 2 (Distorted) play 4x for Chorus 1
C#|---------------------------------------------------------------------|
G#|---------------------------------------------------------------------|
 E|---------------------------------------------------------------------|
 B|-2--22-2-----222-2-3b4~--2-------------------------------------------|
F#|-2--22-2-----222-2-3b4~--2-------------------------------------------|
C#|-0--00-0-+3+-000-0-1b2~--0-------------------------------------------|
PM     **       ***

Post-Chorus 1 Gtr. 1 (Clean)
C#|-----------------------------------------------------------------------|
G#|-----------------------------------------------------------------------|
 E|-9-9-9-9-9-9-9-9-9-9-9-9-9-9-9-9---------------------------------------|
 B|-----------------------------------------------------------------------|
F#|-----------------------------------------------------------------------|
C#|-----------------------------------------------------------------------|

Verse 2 is the same as Verse 1 for Guitars

Chorus 2 is the same as Chorus 1 for Guitars

Post-Chorus 2 Gtrs. 1 & 2 (Distorted)
C#|-----------------------------------------------------------------------|
G#|-----------------------------------------------------------------------|
 E|-----------------------------------------------------------------------|
 B|-2-----2-----2-22-2----------------------------------------------------|
F#|-2-----2-----2-22-2----------------------------------------------------|
C#|-0-+3+-0-+3+-0-00-0----------------------------------------------------|
PM                **

Bridge Pt. 1 Gtr. 1 (Distorted)
C#|------------------------------------------------------------------------|
G#|------------------------------------------------------------------------|
 E|-------9~-7-6-6~-------9~-7-7-6-5~-------9~-7-6-6~-------9~-7-7-6-4-5~\0|
 B|-6-7-6-----------6-7-6-------------6-7-6-----------6-7-6----------------|
F#|------------------------------------------------------------------------|
C#|------------------------------------------------------------------------|


Bridge Pt. 1 Gtr. 2 (Distorted + Heavy Delay) This comes in halfway the Bridge Pt. 1
C#|-10~-10~--8-10-8-7--8-7-7--7-7-7-5-5-5--3--3~~~------------------------|
G#|-----------------------------------------------------------------------|
 E|-----------------------------------------------------------------------|
 B|-----------------------------------------------------------------------|
F#|-----------------------------------------------------------------------|
C#|-----------------------------------------------------------------------|

There is an synth effect that sounds like its rhythm guitar throughout Bridge Pt. 1 & 2

Bridge Pt. 2 Gtr. 1 (Distorted) Comes in at 2:26
C#|-----------------------------------------------------------------------|
G#|-----------------------------------------------------------------------|
 E|-------9~-7-7-6-5~-------9~-7-6-6~-------9~-7-7-6-5~-------------------|
 B|-6-7-6-------------6-7-6-----------6-7-6-------------------------------|
F#|-----------------------------------------------------------------------|
C#|-----------------------------------------------------------------------|

Bridge Pt. 2 Gtr. 2 (Distorted) Comes in at 2:37
C#|-----------------------------------------------------------------------|
G#|-10-10-10-10-6-6-6-6---------------------------------------------------|
 E|-x--x--x--x--x-x-x-x---------------------------------------------------|
 B|-7--7--7--7--3-3-3-3---------------------------------------------------|
F#|-----------------------------------------------------------------------|
C#|-----------------------------------------------------------------------|

Pre-Chorus Gtrs. 1 & 2 (Distorted + Volume Compression Effect)
C#|---------------------------------------------------------------------|
G#|---------------------------------------------------------------------|
 E|---------------------------------------------------------------------|
 B|-2--22-2-----222-2-3b4~--2-------------------------------------------|
F#|-2--22-2-----222-2-3b4~--2-------------------------------------------|
C#|-0--00-0-+3+-000-0-1b2~--0-------------------------------------------|
PM     **       ***

Then Play Chorus Riff 7x for Final Chorus
But after 5th time Gtr. 1 plays this real quick (Distorted)
C#|-----------------------------------------------------------------------|
G#|-----------------------------------------------------------------------|
 E|-----------------------------------------------------------------------|
 B|-----------------------------------------------------------------------|
F#|-----------------------------------------------------------------------|
C#|-+4+-0-6b7-------------------------------------------------------------|
This happens when theres a weird drum beat in there listen to the song and you’ll get it

Outro Gtrs. 1 & 2 (Distorted + Volume Compression Effect)
C#|---------------------------------------------------------------------|
G#|---------------------------------------------------------------------|
 E|---------------------------------------------------------------------|
 B|-2--22-2-----222-2-3b4~--2-------------------------------------------|
F#|-2--22-2-----222-2-3b4~--2-------------------------------------------|
C#|-0--00-0-+3+-000-0-1b2~--0-------------------------------------------|
PM     **       ***

07.I Have A Need


Tuning: Gtr. 1, 2, and 3 C# Standard (C#,F#,B,E,G#,C#)

Intro/Verse Gtr. 1 (Clean + Tape Delay) play 4x for Intro 4x for Verse
C#|---------------------------------------------------------------------------|
G#|---------------------------------------------------------------------------|
 E|---------------------------------------------------------------------------|
 B|-2-2--2-5------------1-----------------------------------------------------|
F#|----------3--5--5-0--------------------------------------------------------|
C#|---------------------------------------------------------------------------|
PM  * *  * * *  *  * *  *

Chorus Gtr. 1 (Clean) Play 2x for First Chorus
C#|-----0---0---0---0---------------------------------------------------------|
G#|---------------------------------------------------------------------------|
 E|---------------------------------------------------------------------------|
 B|---2-----------------------------------------------------------------------|
F#|---------------------------------------------------------------------------|
C#|-0-----3---5---6-----------------------------------------------------------|
Then
C#|-----0---0---0---0---------------------------------------------------------|
G#|-----------------0---------------------------------------------------------|
 E|-----------------0---------------------------------------------------------|
 B|---2-----------------------------------------------------------------------|
F#|---------------------------------------------------------------------------|
C#|-0-----3---5---6-----------------------------------------------------------|
Then
C#|---0--0----0----0---------------------------------------------------------|
G#|-------0--------0---------------------------------------------------------|
 E|----------------0---------------------------------------------------------|
 B|--------------------------------------------------------------------------|
F#|--------------------------------------------------------------------------|
C#|-8--8---10---10-----------------------------------------------------------|


Gtr. 1 play Intro Riff 4x for Guitar Break

Guitar Break Gtr. 2 (Distortion + Tape Delay + Reverb)
C#|-----------------------------------------------------------------|}
G#|-12--12-12--13-13-13-10-10-12-12\8-8-8-8-10-10-8-8\7-7-----------|}
 E|-----------------------------------------------------------------|}
 B|-----------------------------------------------------------------|}
F#|-----------------------------------------------------------------|}
C#|-----------------------------------------------------------------|}
                                                                     }play 2x
C#|-----------------------------------------------------------------|}
G#|-7\5-5-5-5-7-7-8-3-3-5-5\1-1-1-1-3-3-1-1\0-0---------------------|}
 E|-----------------------------------------------------------------|}
 B|-----------------------------------------------------------------|}
F#|-----------------------------------------------------------------|}
C#|-----------------------------------------------------------------|}

Guitar Break Gtr. 3 (Distortion)
C#|---------------------------------------------------------------------------|
G#|---------------------------------------------------------------------------|
 E|-9~~~--9~~~----------------------------------------------------------------|
 B|-9~~~--9~~~----------------------------------------------------------------|
F#|-7~~~--7~~~----------------------------------------------------------------|
C#|---------------------------------------------------------------------------|

Verse 2 Gtr. 1 (Distortion) play 4x
C#|---------------------------------------------------------------------------|
G#|-12-12-12~-12-12--15-15-15-15-15\8~-8~/10-10-10~-10-10-10-10-10-11-11------|
 E|-x--x--x---x--x---x--x--x--x--x--x--x--x--x--x---x--x--x--x--x--x--x-------|
 B|-9--9--9~~-9--9---12-12-12-12-12\5~-5~-7--7--7~~-7--7--7--7--7--8--8-------|
F#|---------------------------------------------------------------------------|
C#|---------------------------------------------------------------------------|

Verse 2 Gtr. 2 (Distortion + Delay + Reverb)
C#|-15--15--------------------------------------------------------------------|
G#|---12--12-10-12-10-8-7--7-7-8--10-7-7-7-8-10-12----------------------------|
 E|---------------------------------------------------------------------------|
 B|---------------------------------------------------------------------------|
F#|---------------------------------------------------------------------------|
C#|---------------------------------------------------------------------------|

C#|-15--15-------------------------15--15--15---------------------------------|
G#|---12--12-10-12-10-8-7--7-7-8-10--12--12-----------------------------------|
 E|---------------------------------------------------------------------------|
 B|---------------------------------------------------------------------------|
F#|---------------------------------------------------------------------------|
C#|---------------------------------------------------------------------------|

Verse 2 Gtr. 3 (Distortion) play 4x
C#|---------------------------------------------------------------------------|
G#|---------------------------------------------------------------------------|
 E|-9-9-9-9--9-9--12-12-12\5-5/7-7-7-7-7\2-2-xx-8-8---------------------------|
 B|-9-9-9-9--9-9--12-12-12\5-5/7-7-7-7-7\2-2-xx-8-8---------------------------|
F#|-7-7-7-7--7-7--10-10-10\3-3/5-5-5-5-5\0-0-xx-6-6---------------------------|
C#|---------------------------------------------------------------------------|

Gtr. 1 play Chorus 1 part 2x with distortion on

Chorus 2 Gtr. 2 & 3 (Distortion)
C#|-----------------------------------------------------|        }
G#|-----------------------------------------------------|        }
 E|-----------------------------------------------------|        }
 B|-2-2-2-2/5-5-5/7-7-7-7-7/8-8-8-8---------------------|play 3x }
F#|-2-2-2-2/5-5-5/7-7-7-7-7/8-8-8-8---------------------|        }
C#|-0-0-0-0/3-3-3/5-5-5-5-5/6-6-6-6---------------------|        }
Then                                                             }play 2x
C#|-----------------------------------------------------|        }
G#|-----------------------------------------------------|        }
 E|-----------------------------------------------------|        }
 B|-10-10-10-10-10-10-10-10/12-12-12-12-12-12-12-12-----|        }
F#|-10-10-10-10-10-10-10-10/12-12-12-12-12-12-12-12-----|        }
C#|-8--8--8--8--8--8--8--8-/10-10-10-10-10-10-10-10-----|        }

Guitar Solo Gtr. 2 (Distortion + Slight Delay + Slight Reverb)
C#|------------------------------------------------------------------|
G#|--12--12--12--12--12----------10--10--12-12-12-12-12b--13-13-13/12|
 E|---------------------9----12--------------------------------------|
 B|------------------------------------------------------------------|
F#|------------------------------------------------------------------|
C#|------------------------------------------------------------------|

C#|--------------------------------------------------------------|
G#|--12-12-12-12-12----------------------------------------------|
 E|-----------------9---12-12-12-12-12-12p9-9-9--9-9\7-7/9-9-9-9-|
 B|--------------------------------------------------------------|
F#|--------------------------------------------------------------|
C#|--------------------------------------------------------------|

Repeat First Bar

C#|------------------------------------------------------|
G#|--12-12-12-12-12--------------------------------------|
 E|-----------------9--9\7-7-7-7\5--5\4-4-4\2-2-2-2-4-5-4|
 B|------------------------------------------------------|
F#|------------------------------------------------------|
C#|------------------------------------------------------|

C#|--------------------------------------------------------|
G#|--12--12-------10-10-12-12-12-12-------10-10-12-12-12---|
 E|---------9--12-------------------9--12----------------9-|
 B|--------------------------------------------------------|
F#|--------------------------------------------------------|
C#|--------------------------------------------------------|

C#|-----------------------------------------------------|
G#|--15-------15--15-17---------------------------------|
 E|------12--------------14-14-14-12-12-12~-7-7-7-9-9-9-|
 B|-----------------------------------------------------|
F#|-----------------------------------------------------|
C#|-----------------------------------------------------|

C#|-----------------------------------------------------------|
G#|--12-12----------10-10--12-12-12~---------10-10--12-12-12--|
 E|--------9----12-------------------9~--12------------------9|
 B|-----------------------------------------------------------|
F#|-----------------------------------------------------------|
C#|-----------------------------------------------------------|

C#|-----------------------------------------------------------|
G#|--15------15--15-17-17-------------------------------------|
 E|-----12-----------------14--14-12--12-11-11-7--7-12-12-14~~|
 B|-----------------------------------------------------------|
F#|-----------------------------------------------------------|
C#|-----------------------------------------------------------|

Gtrs. 1 & 3 are tacet for solo (silent)

Gtr. 2 & 3 play play 2nd Chorus 2x through for final chorus

Gtr. 1 play 2nd chorus whole way through 1 time then play this for ending part

Outro Gtr. 1 (Distortion + Reverb + Delay) play 2x
C#|------------------------------------------------------------------------|
G#|------------------------------------------------------------------------|
 E|-11~-12-12~-14-14~-16--16-----------------------------------------------|play 3x
 B|------------------------------------------------------------------------|
F#|------------------------------------------------------------------------|
C#|------------------------------------------------------------------------|
then
C#|-3-3-3-3-3-3-3-3/--15--15--15-------------------------------------------|
G#|-5-5-5-5-5-5-5-5/17--17--17--17-17--------------------------------------|
 E|------------------------------------------------------------------------|
 B|------------------------------------------------------------------------|
F#|------------------------------------------------------------------------|
C#|------------------------------------------------------------------------|

08. 4 Walls

Tuning: Gtrs. 1,2, & 3 are in C# Standard Tuning (Standard Borland) low to High (C#,F#,B,E,G#,C#)


Intro Gtrs. 1 & 2 (Distorted)
C#|------------------------------------------------------------|}
G#|------------------------------------------------------------|}
 E|------------------------------------------------------------|}
 B|--------2-2----------------2-2--------2-2------------5-5----|}
F#|-2-2--2------2---------5-5-----2-2--2------2-------------5-5|}
C#|-0-0--0------0-3-3-3-3---------0-0--0------0-3-3-3-3--------|}
                                                                } play all 2x for Intro
Then                                                            }
C#|------------------------------------------------------------|}
G#|------------------------------------------------------------|}
 E|------------------------------------------------------------|}
 B|--------2-2----------------2-2--------2-2-------------------|}
F#|-2-2--2------2---------5-5-----2-2--2-----2-----------------|}
C#|-0-0--0------0-3-3-3-3---------0-0--0-----0-3-0-0-3b4-0-3b4-|}


Verse 1 Gtr. 1 (Clean)
C#|------------------------------------------------------------------------|}
G#|-----------------------------------------------------------------8-8----|}
 E|---------9-9-----------------7-7-9-9---------9-9---------------------7-7|}
 B|------------------------------------------------------------------------|}
F#|-7-7-7-7-----7-7-10-10-10-10---------7-7-7-7-----7-7-10-10-10-10--------|}
C#|------------------------------------------------------------------------|}
PM  * * * * * * * * *  *  *  *  * * * * * * * * * * * * *  *  *  *  * * * * } play all 2x
Then                                                                        }
C#|------------------------------------------------------------------------|}
G#|------------------------------------------------------------------------|}
 E|---------9-9-----------------7-7-9-9---------9-9------------------------|}
 B|------------------------------------------------------------------------|}
F#|-7-7-7-7-----7-7-10-10-10-10---------7-7-7-7-----7-7-10-7-7-10-7-7-10-7-|}
C#|------------------------------------------------------------------------|}
PM  * * * * * * * * *  *  *  *  * * * * * * * * * * * * *  * * *  * * *  *


Chorus Gtr. 1 (Clean w/430ms Delay & Chamber Reverb) This part is kind of tough so watch out.
C#|----------1212----------121212--------------1212-------------121212---------|}
G#|----------x-x-----------x-x-x---------------x-x--------------x-x-x----------|}
 E|-9--9-9-9-9-9--9-9-9-9--9-9-9--12--12-12-12-9-9--12-12-12-12-9-9-9----------|}
 B|-x--x-x-x------x-x-x-x---------x---x--x--x-------x--x--x--x-----------------|}
F#|-7--7-7-7------7-7-7-7---------10--10-10-10------10-10-10-10----------------|}
C#|----------------------------------------------------------------------------|}
                                                                                } play 2x
Then                                                                            }
C#|--------------1212--------------121212---------------1212-------------121212|}
G#|--------------x-x---------------x-x-x----------------x-x--------------x-x-x-|}
 E|--------------9-9---------------9-9-9---14--14-14-14-9-9--12-12-12-12-9-9-9-|}
 B|-12--12-12-12-------12-12-12-12---------x---x--x--x-------x--x--x--x--------|}
F#|-x---x--x--x--------x--x--x--x----------12--12-12-12------10-10-10-10-------|}
C#|-10--10-10-10-------10-10-10-10---------------------------------------------|}


Chorus Gtr. 2 (Distorted)
C#|-------------------------------------------------------------------------------|}
G#|-------------------------------------------------------------------------------|}
 E|-------------------------------------------------------------------------------|}
 B|-2-2-2-2-2-2-2-2-2-2-2-2-2-2-2-2-5-5-5-5-5-5-5-5-5-5-5-5-5-5-5-5---------------|}
F#|-2-2-2-2-2-2-2-2-2-2-2-2-2-2-2-2-5-5-5-5-5-5-5-5-5-5-5-5-5-5-5-5---------------|}
C#|-0-0-0-0-0-0-0-0-0-0-0-0-0-0-0-0-3-3-3-3-3-3-3-3-3-3-3-3-3-3-3-3---------------|}
                                                                                   }
Then                                                                               } 2x
C#|-------------------------------------------------------------------------------|}
G#|-------------------------------------------------------------------------------|}
 E|-------------------------------------------------------------------------------|}
 B|12-12-12-12-12-12-12-12-12-12-12-12-12-12-12-12-7-7-7-7-7-7-7-7-5-5-5-5-5-5-5-5|}
F#|12-12-12-12-12-12-12-12-12-12-12-12-12-12-12-12-7-7-7-7-7-7-7-7-5-5-5-5-5-5-5-5|}
C#|10-10-10-10-10-10-10-10-10-10-10-10-10-10-10-10-5-5-5-5-5-5-5-5-3-3-3-3-3-3-3-3|}

Guitar Break Gtr. 3 (Distorted w/ Auto-Wah & Delay)
C#|------------------------------------------------------------|
G#|----------5-5-/12~--12h13-12-10-12p10\8-8-7-5h7p5p0-7h8p7---|
 E|-----3h4----------------------------------------------------|
 B|-1h2--------------------------------------------------------|
F#|------------------------------------------------------------|

C#|------------------------------------------------------------|

Then
C#|---------------------------3~-2~----------------------------|
G#|-3-3-3p0-5p0---------------------5~-------------------------|
 E|-------------3h4-3h4h3-5p3----------------------------------|
 B|------------------------------------------------------------|
F#|------------------------------------------------------------|
C#|------------------------------------------------------------|
PM  * * *

Gtr. 2 Plays Intro Riff 1x

Gtr. 1 Repeats Verse

Gtrs. 1 & 2 Repeat Respective Choruses


Interlude Gtr. 1 (Distorted w/ Auto-Wah) play 2x (1x without 2nd Gtr. & 1x with 2nd Gtr.)
C#|-12~-----------12-----------10~----------10---10------------|
G#|---------10-------------------------------------------------|
 E|------11----12----9~--11-12------12p11-11---9---11~-12------|
 B|------------------------------------------------------------|
F#|------------------------------------------------------------|
C#|------------------------------------------------------------|

Then
C#|------------------------------------------------------------|
G#|-12~-----10----10-----10----10~----10----10-----------------|
 E|------12----11----9~-----12-----12----12---12----12---------|
 B|----------------------------------------------12------------|
F#|------------------------------------------------------------|
C#|------------------------------------------------------------|

Interlude Gtr. 2 (Distorted) play 2x thru during 2nd time through of Gtr. 1’s Solo
C#|----------------------------------------------------------------|
G#|----------------------------------------------------------------|
 E|---------------------------------4-4-4-4-4-4-4-4---4-4-4-4-4-4-4|
 B|-2-2-2-2-2-2-2-2---2-2-2-2-2-2-2-5-5-5-5-5-5-5-5---5-5-5-5-5-5-5|
F#|-2-2-2-2-2-2-2-2---2-2-2-2-2-2-2-5-5-5-5-5-5-5-5---5-5-5-5-5-5-5|
C#|-0-0-0-0-0-0-0-0---0-0-0-0-0-0-0-3-3-3-3-3-3-3-3---3-3-3-3-3-3-3|

Then
C#|------------------------------------------------------------|
G#|------------------------------------------------------------|
 E|------------------------------------------------------------|
 B|-12-12-12-12-12-12-12-12---12-12-12-12-12-12-12-------------|
F#|-12-12-12-12-12-12-12-12---12-12-12-12-12-12-12-------------|
C#|-10-10-10-10-10-10-10-10---10-10-10-10-10-10-10-------------|

Then
C#|------------------------------------------------------------|
G#|------------------------------------------------------------|
 E|------------------------------------------------------------|
 B|-7-7-7-7-7-7-7-7-7-9-9-9-9-9-9-9----------------------------|
F#|-7-7-7-7-7-7-7-7-7-9-9-9-9-9-9-9----------------------------|
C#|-5-5-5-5-5-5-5-5-5-7-7-7-7-7-7-7----------------------------|


Then Both Gtrs. Play Respective Chorus Riffs 4x each for Final Chorus

Outro Pt. 1 Gtrs. 1 & 2 (Distorted) Play this 8x
C#|------------------------------------------------------------|
G#|------------------------------------------------------------|
 E|------------------------------------------------------------|
 B|-5\2-2-5-/14------------------------------------------------|
F#|-5\2-2-5-/14------------------------------------------------|
C#|-3\0-0-3-/12------------------------------------------------|

                                      B|2|
After Playing This Guitar 2 ends on  F#|2|
                                     C#|0|

Gtr. 1 Plays Chorus Riff 2x through for Outro Pt. 2


09. Stop A Bullet

Tuning: Gtrs. 1 & 2 are in 1 & ½ steps down Drop D low to High (B,F#,B,E,G#,C#)

No Guitars until halfway through 2nd Chorus and its Gtr. 2 playing this

Pre-Interlude Gtr. 2 (Distorted) (Parentheses means you start a slid up to the 12th fret
at the 10th fret)
C#|-----------------------------------------------------------------------|
G#|-----------------------------------------------------------------------|
 E|-----------------------------------------------------------------------|
 B|-----------------------------------------------------------------------|
F#|-----------------------------------------------------------------------|
 B|-0~-0-0-0-(10)/12~--0--0-0--0-0-(10)/12~-10-12-------------------------|
PM       *                *    *

Then
C#|--------------------------------------------------------------------|
G#|--------------------------------------------------------------------|
 E|--------------------------------------------------------------------|
 B|--------------------------------------------------------------------|
F#|-----------------------5--5---5-------------------------------------|
 B|-0~-0-0-0-(10)/12-12~--0--0--00-(10)/12~-12~------------------------|
PM       *                      *


Interlude Gtr. 1 (Distorted)
C#|--------------------------------------------------------------------|}
G#|-15-15-15-15~\--/15-15-15-15-17-18-18-18-18~\--/18-18-18-18~\-------|}
 E|-x--x--x--x------x--x--x--x--x--x--x--x--x------x--x--x--x----------|}
 B|-12-12-12-12~\--/12-12-12-12-14-15-15-15-15~\--/15-15-15-15~\-------|}
F#|--------------------------------------------------------------------|}
 B|--------------------------------------------------------------------|}
                                                                        } play 2x
Then                                                                    }
C#|--------------------------------------------------------------------|}
G#|-/20-20-20-20~\--/20-20-20-20~\--/13-13-13-13~\--/13-13-13-13-14----|}
 E|--x--x--x--x------x--x--x--x------x--x--x--x------x--x--x--x--x-----|}
 B|-/17-17-17-17~\--/17-17-17-17~\--/10-10-10-10~\--/10-10-10-10-11----|}
F#|--------------------------------------------------------------------|}
 B|--------------------------------------------------------------------|}


Interlude Gtr. 2 (Distorted) play 2x
C#|--------------------------------------------------------------------|
G#|--------------------------------------------------------------------|
 E|--------------------------------------------------------------------|
 B|-0-00-00-/12~\-0-00-00-/12~\-3-33-33-/12~\-3-33-33-/12~\------------|
F#|-0-00-00-/12~\-0-00-00-/12~\-3-33-33-/12~\-3-33-33-/12~\------------|
 B|-0-00-00-/12~\-0-00-00-/12~\-3-33-33-/12~\-3-33-33-/12~\------------|
PM    *  *          *  *          *  *          *  *

Then
C#|--------------------------------------------------------------------|
G#|--------------------------------------------------------------------|
 E|-5-55-55-------5-55-55----------------------------------------------|
 B|-5-55-55-/12~\-5-55-55-/12~\-10-1010-1010-/12~\-10-1010-1010-/12-11-|
F#|-5-55-55-/12~\-5-55-55-/12~\-10-1010-1010-/12~\-10-1010-1010-/12-11-|
 B|-5-55-55-/12~\-5-55-55-/12~\-10-1010-1010-/12~\-10-1010-1010-/12-11-|
PM    *  *          *  *           *    *             *    *


Final Chorus Gtr. 1 (Distorted)
C#|--------------------------------------------------------------------|}
G#|-15-15-15-15-15-15-15-15-15-15-15-15-15-15-17-17--------------------|}
 E|-x--x--x--x--x--x--x--x--x--x--x--x--x--x--x--x---------------------|}
 B|-12-12-12-12-12-12-12-12-12-12-12-12-12-12-14-14--------------------|}
F#|--------------------------------------------------------------------|}
 B|--------------------------------------------------------------------|}
                                                                        }
Then                                                                    }
C#|--------------------------------------------------------------------|}
G#|-18-18-18-18-18-18-18-18-18-18-18-18-18-18-18-18--------------------|}
 E|-x--x--x--x--x--x--x--x--x--x--x--x--x--x--x--x---------------------|}
 B|-15-15-15-15-15-15-15-15-15-15-15-15-15-15-15-15--------------------|}
F#|--------------------------------------------------------------------|}
 B|--------------------------------------------------------------------|}
                                                                        } play all 2x
Then                                                                    }
C#|--------------------------------------------------------------------|}
G#|-20-20-20-20-20-20-20-20-20-20-20-20-20-20-20-20--------------------|}
 E|-x--x--x--x--x--x--x--x--x--x--x--x--x--x--x--x---------------------|}
 B|-17-17-17-17-17-17-17-17-17-17-17-17-17-17-17-17--------------------|}
F#|--------------------------------------------------------------------|}
 B|--------------------------------------------------------------------|}
                                                                        }
Then                                                                    }
C#|--------------------------------------------------------------------|}
G#|-13-13-13-13-13-13-13-13-13-13-13-13-13-13-14-14--------------------|}
 E|-x--x--x--x--x--x--x--x--x--x--x--x--x--x--x--x---------------------|}
 B|-10-10-10-10-10-10-10-10-10-10-10-10-10-10-11-11--------------------|}
F#|--------------------------------------------------------------------|}
 B|--------------------------------------------------------------------|}

End On
G#|15~|
 E|x--|
 B|12~|


Final Chorus Gtr. 2 (Distorted)
C#|--------------------------------------------------------------------|}
G#|--------------------------------------------------------------------|}
 E|--------------------------------------------------------------------|}
 B|-0-0-0-0-0-0-0-0-0-0-0-0-0-0-2-2------------------------------------|}
F#|-0-0-0-0-0-0-0-0-0-0-0-0-0-0-2-2------------------------------------|}
 B|-0-0-0-0-0-0-0-0-0-0-0-0-0-0-2-2------------------------------------|}
                                                                        }
Then                                                                    }
C#|--------------------------------------------------------------------|}
G#|--------------------------------------------------------------------|}
 E|--------------------------------------------------------------------|}
 B|-3-3-3-3-3-3-3-3-3-3-3-3-3-3-3-3------------------------------------|}
F#|-3-3-3-3-3-3-3-3-3-3-3-3-3-3-3-3------------------------------------|}
 B|-3-3-3-3-3-3-3-3-3-3-3-3-3-3-3-3------------------------------------|}
                                                                        }Play all 2x
Then                                                                    }
C#|--------------------------------------------------------------------|}
G#|--------------------------------------------------------------------|}
 E|--------------------------------------------------------------------|}
 B|-5-5-5-5-5-5-5-5-5-5-5-5-5-5-5-5------------------------------------|}
F#|-5-5-5-5-5-5-5-5-5-5-5-5-5-5-5-5------------------------------------|}
 B|-5-5-5-5-5-5-5-5-5-5-5-5-5-5-5-5------------------------------------|}
                                                                        }
Then                                                                    }
C#|--------------------------------------------------------------------|}
G#|--------------------------------------------------------------------|}
 E|--------------------------------------------------------------------|}
 B|-10-10-10-10-10-10-10-10-10-10-10-10-10-10-11-11--------------------|}
F#|-10-10-10-10-10-10-10-10-10-10-10-10-10-10-11-11--------------------|}
 B|-10-10-10-10-10-10-10-10-10-10-10-10-10-10-11-11--------------------|}

End With (Parentheses around notes means tap the enclosed fret to harmonize it then bend
note up a half step then release the bend)
 B|12-(24)b(25)~r(24)~|
F#|12-(24)b(25)~r(24)~|
 B|12-(24)b(25)~r(24)~|


There’s actually one more guitar part in the final chorus but I definitely cant figure
out it sounds like its almost entirely made up of Tapped Harmonics Bell Harmonics
Harmonicsand maybe some Pinch Harmonics
In other words lots of harmonics and also they don’t play this part live
If I figure out this part I will update the tab


10. One Of Yours

Tuning: Gtr. 1 (Lohner) & 2 (Borland) 1 and ½ steps down Drop D low to high (B,F#,B,E,G#,C#)

Intro/Verse Riff (Gtr. 1) (Overdrive + pick Palm Muted notes harder) play 4x for Intro
4x for 1st Verse
C#|--|-----------------------------------------------------------|
G#|--|-----------------------------------------------------------|
 E|--|-----------------------------------------------------------|
 B|--|-----------------------------1-0---------------------------|
F#|--|-5-----------5-----3-3---------------------5-------3-------|
 B|-0|---0-0-0-1-3---0-1-----0-1-3-----0-0-0-1-3---0-1-5---0-1-3-|
PM       * * * * *   * *     * * *     * * * * *   * * *   * * *

Intro/Verse Riff Gtr. 2 (Distorted) (Very Quietly + Tremolo Picked) These bends are
slow
C#|-22b23---------------------22b23-------------------------------------------|
G#|---------------------------------------------------------------------------|
 E|---------------------------------------------------------------------------|
 B|---------------------------------------------------------------------------|
F#|---------------------------------------------------------------------------|
 B|---------------------------------------------------------------------------|


Pre-Chorus Gtr. 1 & 2 (Distorted) play all 3 & ½ times part past the bar is played with
Effects as Intro/Verse Riff and is played by just Gtr. 1
C#|------------------------------|------------------------------|
G#|------------------------------|------------------------------|
 E|------------------------------|------------------------------|
 B|-6--6-6-6--1-1-1-0------------|------------------------------|
F#|-6--6-6-6--1-1-1-0------------|-5-----------5-----3-3--------|
 B|-6--6-6-6--1-1-1-0------------|---0-0-0-1-3---0-1-----0-1-3--|
PM                                   * * * * *   * *     * * *

Chorus Gtr. 1 (Distortion + Delay) play 2x for 1st Chorus
C#|------------------------------------------------------------------------------------|
G#|----------------------------------------------11-11-11p10-10-10p8-8h10-10p8-11p8-10-|
 E|-11p7-7-7-7-57-57-5h7-77-7-787-787-11-11-11-7---------------------------------------|
 B|------------------------------------------------------------------------------------|
F#|------------------------------------------------------------------------------------|
 B|------------------------------------------------------------------------------------|

Chorus Gtr. 2 (Distortion) play 2x
C#|---------------------------------------------------------------------------|
G#|---------------------------------------------------------------------------|
 E|-7--------------------12-----------7----------------12---------------------|
 B|-x--------------------x------------x----------------x----------------------|
F#|-5--------------------10-----------5----------------10---------------------|
 B|---------------------------------------------------------------------------|

Note
All low notes in chorus are bass not guitar

Gtr. 1 plays Intro Riff 2x for Break

Break Gtr. 2 (Distortion + Auto-Wah & Envelope Filter (2 Auto-Wahs))
C#|---------------------------------------------------------------------------|
G#|---------------------------------------------------------------------------|
 E|--------------------10-------10----10-12-13~-16-13-------------------------|
 B|-10-10-11-11-12~-12----12-12----12-----------------10-10-11-11-12~-12~~~\0-|
F#|---------------------------------------------------------------------------|
 B|---------------------------------------------------------------------------|

Gtr. 1 plays Intro Riff 4x for Verse 2

Verse 2 Gtr. 2 (Distortion) (Very Quietly + Tremolo Picked) play 2x
C#|-22b23r22-20-18-17-15-14-11-10---------------------------------------------|
G#|---------------------------------------------------------------------------|
 E|---------------------------------------------------------------------------|
 B|---------------------------------------------------------------------------|
F#|---------------------------------------------------------------------------|
 B|---------------------------------------------------------------------------|

Repeat Pre-Chorus

Repeat Chorus

Bridge Sitar  play 4x
C#|--------------------------------------------------------------------------------|
G#|--------------------------------------------------------------------------------|
 E|--------------------------------------------------------------------------------|
 B|-----3b4r3-----5b6r5-----3b4r3---------5-----2b3r2-----3b5r3-----2b3r2-------3b4|
F#|---5---------5---------5---------5b6-------3---------3---------3---------3-5----|
 B|-0---------0---------0---------0-----0---3---------3---------3---------3--------|

Bridge Gtrs. 1(plays just beginning 2 chords then when the singing comes in switches
to the Sitar part except heavily distorted & palm muted) & 2 (Distorted) 2nd part starts
he sings (Replace the silence…) and is
Tremolo Picked and very quiet
C#|-------------------------22---20b20.5b21---22---20b20.5b21~~(let ring)-----|
G#|---------------------------------------------------------------------------|
 E|-7-------------------------------------------------------------------------|
 B|-7\0-----------------------------------------------------------------------|
F#|-5\0-----------------------------------------------------------------------|
 B|---0-----------------------------------------------------------------------|

Gtr. 1 plays Intro Riff 2x for Break 2 while Gtr. 2 lets the 21 ring

Repeat Pre-Chorus

Repeat Chorus

Gtr. 1 play Chorus again for Guitar Solo

Guitar Solo Gtr. 2 (Distorted + Tape Delay) play 2x
C#|14~-10~-8h10-10-8h10-11-10-11-10-11-14~-10~-18-18-18p17-17-17p15-15-15-17p15-18p5-17~|
G#|-------------------------------------------------------------------------------------|
 E|-------------------------------------------------------------------------------------|
 B|-------------------------------------------------------------------------------------|
F#|-------------------------------------------------------------------------------------|
 B|-------------------------------------------------------------------------------------|

Gtr. 2 play Break 1 for Outro

Outro Gtr. 1 (Clean (except last 3 chords are distorted))
C#|---------------------------------------------------------------------------|
G#|---------------------------------------------------------------------------|
 E|---------------------------------------------------------------------------|
 B|-----------------------------1-0-------------------------------------------|
F#|-5-----------5-----3-3---------------------5-------3-----------------------|
 B|---0-0-0-1-3---0-1-----0-1-3-----0-0-0-1-3---0-1-5---0-1-3-----------------|
PM    * * * * *   * *     * * *     * * * * *   * * *   * * *
then
C#|---------------------------------------------------------------------------|
G#|---------------------------------------------------------------------------|
 E|---------------------------------------------------------------------------|
 B|-----------------------------1-0-----------------3-1-0---------------------|
F#|-5-----------5-----3-3---------------------5-----3-1-0---------------------|
 B|---0-0-0-1-3---0-1-----0-1-3-----0-0-0-1-3---0-1-3-1-0---------------------|
PM    * * * * *   * *     * * *     * * * * *   * *


11. New Hunger

Tuning: All Parts Written For 6 String Guitar in C# Standard Tuning Low to High (C#,F#,B,E,G#,C#)

Main Riff of song  This is all synth effects obviously I just tabbed them for guitar
Gtr. 1 (Clean w/ Ring Mod & Delay)
C#|---------------------------------------------------------------------------|
G#|---------------------------------------------------------------------------|
 E|---------5-----------------------------------------------------------------|
 B|---1h3---------------------------------------------------------------------|
F#|-----------1-3-------------------------------------------------------------|
C#|---------------4-----------------------------------------------------------|
 Or something like that  This plays almost the entire song

Verse Cello Riff Its in the background and quiet play 1 time for the end part of the
then play 2x for 1st verse
C#|------------------------------------------------------------------------------|
G#|------------------------------------------------------------------------------|
 E|------------------------------------------------------------------------------|
 B|-------1~---------------------------------------------------------------------|
F#|----------1~~-3~--------------------------------------------------------------|
C#|-1~-4~------------------------------------------------------------------------|

Chorus Effects Riff play 4x for 1st Chorus
Gtr. 1 (Clean w/ Ring Mod)
C#|---------------------------------------------------------------------------|
G#|---------------------------------------------------------------------------|
 E|-6-6---------5-------------------------------------------------------------|
 B|-6-6-6--3-3--5-------------------------------------------------------------|
F#|-4-4-6--3-3--3-------------------------------------------------------------|
C#|-----4--1-1----------------------------------------------------------------|

Chorus Gtr. 1 (Clean w/Very Fast Phaser) Listen for it I guarantee its there
C#|---------------------------------------------------------------------------|
G#|-4-------4-------4--------4------------------------------------------------|
 E|---------------------------------------------------------------------------|
 B|---------------------------------------------------------------------------|
F#|---------------------------------------------------------------------------|
C#|---------------------------------------------------------------------------|

Piano Riff following 1st Chorus notes above
C#|-G----D--F--C--G--D-G----D--F--C--G--A-------------------------------------|
G#|-11~--6~-9~-4~------11~--6~-9~-4~------------------------------------------|
 E|---------------3~-----------------3~-5~------------------------------------|
 B|------------------3~-------------------------------------------------------|
F#|---------------------------------------------------------------------------|
C#|---------------------------------------------------------------------------|

Cello plays its verse riff once during the Piano part then plays it 2 more times for 2nd Verse

Then repeat Chorus

Bridge Violins 3 & 4 play 4x
C#|-1-4-6-13~-4-6-13-8-1-6-1-8-9-8-9-8-9-8-9-8-9-8----------------------------|
G#|---------------------------------------------------------------------------|
 E|---------------------------------------------------------------------------|
 B|---------------------------------------------------------------------------|
F#|---------------------------------------------------------------------------|
C#|---------------------------------------------------------------------------|

Bridge Cellos 1 & 2 (play with violins) play 4x
C#|---------------------------------------------------------------------------|
G#|---------------------------------------------------------------------------|
 E|---------------------------------------------------------------------------|
 B|---------------------------------------------------------------------------|
F#|---------------------------------------------------------------------------|
C#|--13~------4-6-13-8-1-6-1-8-9-8-9-8-9-8-9-8-9-8-1-4-6----------------------|

Bridge Cellos 3 & 4 (come in halfway through bridge)
C#|---------------------------------------------------------------------------|
G#|---------------------------------------------------------------------------|
 E|---------------------------------------------------------------------------|
 B|---------------------------------------------------------------------------|
F#|-3/8~~-11~\6~~----3/8~~-11~\6~~--3~~~--------------------------------------|
C#|---------------------------------------------------------------------------|

Chorus 3 Gtr. 2 (Distorted + EBOW) play 4x for 3rd Chorus then play 4x for Post-Chorus
C#|---------------------------------------------------------------------------|
G#|---------------------------------------------------------------------------|
 E|---------------------------------------------------------------------------|
 B|---------------------------------------------------------------------------|
F#|-4~~~/11~\8~~/15b15.3~~\---------------------------------------------------|
C#|---------------------------------------------------------------------------|

Outro Piano Right Hand
C#|-------20------------------20--------------------------------------------------|
G#|-16-18---------------16-18(21)(8th time only)-(after 12th time end on 16)------|
 E|----------15-17-13------------15-17-10-----------------------------------------|
 B|-------------------------------------------------------------------------------|
F#|-------------------------------------------------------------------------------|
C#|-------------------------------------------------------------------------------|
Left Hand                                                                    play all 12x
C#|---------------------------------------------------------------------------|
G#|---------------------------------------------------------------------------|
 E|-15-10-13-8-3--------------------------------------------------------------|
 B|---------------------------------------------------------------------------|
F#|---------------------------------------------------------------------------|
C#|---------------------------------------------------------------------------|

Outro Gtr. 1 (Distorted) (This is INCREDIBLY FAINT even if you sit down for 10 minutes
try to listen for this you will probably NOT hear it) this is tremolo picked also and
throughout the Outro until it finally hits and the song ends
C#|-20b21b21.5b22b22.5b23b23.5r23r22.5r22r21.5r21r20--------------------------|
G#|---------------------------------------------------------------------------|
 E|---------------------------------------------------------------------------|
 B|---------------------------------------------------------------------------|
F#|---------------------------------------------------------------------------|
C#|---------------------------------------------------------------------------|

Outro Violins 1 & 2 (quietly) play this note until piano has played its riff 1 and ½ times
C#|---------------------------------------------------------------------------|
G#|-13~~~~~~~~~~~-------------------------------------------------------------|
 E|---------------------------------------------------------------------------|
 B|---------------------------------------------------------------------------|
F#|---------------------------------------------------------------------------|
C#|---------------------------------------------------------------------------|
Then play this until it finishes the 2nd time through the riff                 play all 6x
C#|---------------------------------------------------------------------------|
G#|-11~~~~~-------------------------------------------------------------------|
 E|---------------------------------------------------------------------------|
 B|---------------------------------------------------------------------------|
F#|---------------------------------------------------------------------------|
C#|---------------------------------------------------------------------------|

Outro Violins 3 & 4 play 4x towards the end of the Outro
C#|-1-4-6-13~-4-6-13-8-1-6-1-8-9-8-9-8-9-8-9-8-9-8----------------------------|
G#|---------------------------------------------------------------------------|
 E|---------------------------------------------------------------------------|
 B|---------------------------------------------------------------------------|
F#|---------------------------------------------------------------------------|
C#|---------------------------------------------------------------------------|

Outro Cello 1 play this note for the entire Outro
C#|---------------------------------------------------------------------------|
G#|---------------------------------------------------------------------------|
 E|---------------------------------------------------------------------------|
 B|-3~~~~~~~~~~~~~~~~~~~~~----------------------------------------------------|
F#|---------------------------------------------------------------------------|
C#|---------------------------------------------------------------------------|

Outro Cello 2 play this note until piano plays its riff 1 and ½ times
C#|---------------------------------------------------------------------------|
G#|---------------------------------------------------------------------------|
 E|---------------------------------------------------------------------------|
 B|-3~~~~~~~~~----------------------------------------------------------------|
F#|---------------------------------------------------------------------------|
C#|---------------------------------------------------------------------------|
Then play this for the rest of the 2nd time through the piano riff            play this 6x
C#|---------------------------------------------------------------------------|
G#|---------------------------------------------------------------------------|
 E|---------------------------------------------------------------------------|
 B|-8~~~~~~-------------------------------------------------------------------|
F#|---------------------------------------------------------------------------|
C#|---------------------------------------------------------------------------|

Outro Cellos 3 & 4 play 4x
C#|---------------------------------------------------------------------------|
G#|---------------------------------------------------------------------------|
 E|---------------------------------------------------------------------------|
 B|---------------------------------------------------------------------------|
F#|---------------------------------------------------------------------------|
C#|--13~------4-6-13-8-1-6-1-8-9-8-9-8-9-8-9-8-9-8-1-4-6----------------------|

Outro Bell Pt. 1  play 12x  The / slide ups are runs up the keys
C#|-13/20-13/23-13/20-18--13/20-13/23-21-20-18--------------------------------|
G#|---------------------------------------------------------------------------|
 E|---------------------------------------------------------------------------|
 B|---------------------------------------------------------------------------|
F#|---------------------------------------------------------------------------|
C#|---------------------------------------------------------------------------|

End on
C#|25|

Outro Bell Pt. 2 play 64x (I think)
C#|-27-25-20------------------------------------------------------------------|
G#|---------------------------------------------------------------------------|
 E|---------------------------------------------------------------------------|
 B|---------------------------------------------------------------------------|
F#|---------------------------------------------------------------------------|
C#|---------------------------------------------------------------------------|

End On
C#|27|

Ending Violin 1 (Solo) (bring out)
C#|-13~/15~-15~/16~~~~--------------------------------------------------------|
G#|---------------------------------------------------------------------------|
 E|---------------------------------------------------------------------------|
 B|---------------------------------------------------------------------------|
F#|---------------------------------------------------------------------------|
C#|---------------------------------------------------------------------------|

Ending Violins 2,3, & 4 (quietly)
C#|-1~~~~~~~~~----------------------------------------------------------------|
G#|---------------------------------------------------------------------------|
 E|---------------------------------------------------------------------------|
 B|---------------------------------------------------------------------------|
F#|---------------------------------------------------------------------------|
C#|---------------------------------------------------------------------------|

Ending Cellos 1 & 2
C#|---------------------------------------------------------------------------|
G#|---------------------------------------------------------------------------|
 E|---------------------------------------------------------------------------|
 B|-3~~~~~~~~~~---------------------------------------------------------------|
F#|---------------------------------------------------------------------------|
C#|---------------------------------------------------------------------------|


12. I Am Where It Takes Me

Tuning: All parts tabbed for 6 string guitar in C# Standard low to high (C#,F#,B,E,G#,C#)

This is a beautiful song in my opinion one of the best on the CD. There’s only 1 guitar
but there are other string riffs. I’ll tab what I can.
This part is actually Plucked Cello but I have it tabbed for guitar if you actually own
cello you can figure it out from the notes here. This part is played many times
the song you’ll have to figure out when
Parentheses are to represent the echo that is put on those notes
C#|--------------------------------------------------------------------------------------|
G#|---------4-(4)-(4)-(4)----------------------------------------------------------------|
 E|-5-5-5--5-(5)-(5)-(5)-(5)-------------------------------------------------------------|
 B|---------------------------6-5-5-6-8-6-5-3-1------------------------------------------|
F#|--------------------------------------------------------------------------------------|
C#|--------------------------------------------------------------------------------------|

This is the only guitar riff its clean guitar with a slight echo
C#|---------------------------------------------------------------------------|
G#|-13-13-13-13-13-16p13-13-11-13-9--11-13p11-11-9-8-8-9-11p9-9p8-8-6-4-6-----|
 E|---------------------------------------------------------------------------|
 B|---------------------------------------------------------------------------|
F#|---------------------------------------------------------------------------|
C#|---------------------------------------------------------------------------|

This is a extremely faint violin riff it is entirely tremolo (bowing as fast as you can)
very quiet. There are 2 violin parts at once. This is played during the end of the
and the verses and the outro. Btw these parts match up with each other
Pt. 1 Violins 1 & 2
C#|-18\13-16-23-22-13-16-23-22------------------------------------------------|
G#|---------------------------------------------------------------------------|
 E|---------------------------------------------------------------------------|
 B|---------------------------------------------------------------------------|
F#|---------------------------------------------------------------------------|
C#|---------------------------------------------------------------------------|

Pt. 2 Violins 3, 4, & 5
C#|----13-16-23-18-13-16-23-18------------------------------------------------|
G#|---------------------------------------------------------------------------|
 E|---------------------------------------------------------------------------|
 B|---------------------------------------------------------------------------|
F#|---------------------------------------------------------------------------|
C#|---------------------------------------------------------------------------|


This is a Violin riff played during the choruses (this and cello part match up)
C#|---------------------------------------------------------------------------|
G#|-6/13~-16~-8~-9~/13~-16~-8~9~/13~-16~/18~~-9~/13~-16~-8~~-9~-12~~~---------|
 E|---------------------------------------------------------------------------|
 B|---------------------------------------------------------------------------|
F#|---------------------------------------------------------------------------|
C#|---------------------------------------------------------------------------|


This is a cello riff played in the chorus of the song this is Bowed cello
C#|---------------------------------------------------------------------------|
G#|---------------------------------------------------------------------------|
 E|---------------------------------------------------------------------------|
 B|-3/10~-13~-5~-6~/10~-13~-5~6~/10~~-13~/15~~-6~/10~-13~-5~~-6~-9~~~---------|
F#|---------------------------------------------------------------------------|
C#|---------------------------------------------------------------------------|


This is a bell part during the last chorus tabbed for guitar

C#|-17-19-19-19-19-22-22-26-26-26-26------------------------------------------|
G#|----------------------------------12-12-12-12-12---------------------------|
 E|-8--10-10-10-10-13-13-16-16-16-16-14-14-14-14-14---------------------------|
 B|---------------------------------------------------------------------------|
F#|---------------------------------------------------------------------------|
C#|---------------------------------------------------------------------------|


13. Iodine Sky

There are no guitars in this song so I decided not to tab piano/effect parts
I may go back later on and tab the parts to this song if I do I will update the tab


Thank You very much!!!
Enjoy and please rate (5 stars preferably lol) this took awhile
If you have any fixes email me at smboo28@aim.com

| /  slide up
| \  slide down
| h  hammer-on
| p  pull-off
| ~  vibrato
| +  harmonic
| x  Mute note
===============================================================================
comments
print report bad tab
6 comments total. Showing first comments.
0 reply
SMBoo28 wrote on September 27 2008, 03:46 pm

please please please rate!

0 reply
SageWB wrote on November 29 2008, 02:56 pm

Great work! I can really see that you tried hard to transcribe every single song. Respect.

(Although some parts are wrong or just don't sound like they should.)

I really appreciate your work here.

0 reply
SMBoo28 wrote on November 29 2008, 05:56 pm

thanks

I want to post or [tab]
guest
You may want to rate the tab now too:
select rating
Please do not post tabs as comments. Select "correction" instead!