Oops, an error
Loading. Please wait.

13 Tab

ver1
ver1

Album

Interactive

More versions @911Tabs.com
15,028 views 98 this week
4 commentsread comments
1 2 3 4 5
excellent!
x 9
Autoscroll
+/-
esc
set tempo
stop
Contributor
Hey! There's an official Ultimate Guitar app which is ideal
for learning songs when you're away from computer. Get the app
WARNING: You are trying to view
                                    content from Ultimate-Guitar.com
                                    in an unauthorized application,
                                    which is prohibited.

                                    Please use an official Ultimate
                                    Guitar Tabs application for iPhone,
                                    iPad or Android to access legitimate
                                    chords, guitar, bass, and drum tabs
                                    from Ultimate-Guitar.com database.

                                    Type "ultimate guitar tabs" in Apple
                                    App Store's or Android Market's
                                    search to find the application.




BLACK SABBATH

13

ALL SONGS TABBED BY andherembrace



TRACK 1

END OF THE BEGINNING

FLAT TUNE STANDARD

Eb-Ab-Db-Gb-Bb-Eb



------------------------------------------|
------------------------------------------|
------------------------------------------|
-------6----7--------------6----5---------|
-4-----4----5----5----4----4----3----5----|
-2---------------3----2--------------3----|
             ~                   ~    
------------------------------------------|
------------------------------------------|
------------------------------------------|
-------6----7--------------6----5---------|
-4-----4----5----5----4----4----3----5----|
-2---------------3----2--------------3----|
             ~                   ~    
------------------------------------------|
------------------------------------------|
------------------------------------------|
-------6----7--------------6----5---------|
-4-----4----5----5----4----4----3----5----|
-2---------------3----2--------------3----|
             ~                   ~    
------------------------------------------|
------------------------------------------|
------------------------------------------|
-------6----7--------------6----5---------|
-4-----4----5----5----4----4----3----5----|
-2---------------3----2--------------3----|
             ~                   ~    


semi clean
--------------------------|
--------------------------|
--------------------------|
--------------------------|
------4----5~-------------|
-2-------------3----2-----|





0:51

------------------------------------------|
------------------------------------------|
------------------------------------------|
-------6----7--------------6----5---------|
-4-----4----5----5----4----4----3----5----|
-2---------------3----2--------------3----|
             ~                   ~    
------------------------------------------|
------------------------------------------|
------------------------------------------|
-------6----7--------------6----5---------|
-4-----4----5----5----4----4----3----5----|
-2---------------3----2--------------3----|
             ~                   ~    
------------------------------------------|
------------------------------------------|
------------------------------------------|
-------6----7--------------6----5---------|
-4-----4----5----5----4----4----3----5----|
-2---------------3----2--------------3----|
             ~                   ~    
------------------------------------------|
------------------------------------------|
------------------------------------------|
-------6----7--------------6----5---------|
-4-----4----5----5----4----4----3----5----|
-2---------------3----2--------------3----|
             ~                   ~    






1:35

semi clean

-------------------------------------------|
-------------------------------------------|
-------------------------------------------|
-------------------------------------------|
------4----5~-------------4----3~----------|
-2--------------3----2--------------3------|


-------------------------------------------|
-------------------------------------------|
-------------------------------------------|
-------------------------------------------|
------4----5~-------------4----3~----------|
-2--------------3----2--------------3------|


-------------------------------------------|
-------------------------------------------|
-------------------------------------------|
-------------------------------------------|
------4----5~-------------4----3~----------|
-2--------------3----2--------------3------|


-------------------------------------------|
-------------------------------------------|
-------------------------------------------|
-------------------------------------------|
------4----5~-------------4----3~----------|
-2--------------3----2--------------3------|


-------------------------------------------|
-------------------------------------------|
-------------------------------------------|
-------------------------------------------|
------4----5~-------------4----3~----------|
-2--------------3----2--------------3------|


-------------------------------------------|
-------------------------------------------|
-------------------------------------------|
-------------------------------------------|
------4----5~-------------4----3~----------|
-2--------------3----2--------------3------|








2:41


------------------------------------------|
------------------------------------------|
------------------------------------------|
-------6----7--------------6----5---------|
-4-----4----5----5----4----4----3----5----|
-2---------------3----2--------------3----|
             ~                   ~    
------------------------------------------|
------------------------------------------|
------------------------------------------|
-------6----7--------------6----5---------|
-4-----4----5----5----4----4----3----5----|
-2---------------3----2--------------3----|
             ~                   ~    
------------------------------------------|
------------------------------------------|
------------------------------------------|
-------6----7--------------6----5---------|
-4-----4----5----5----4----4----3----5----|
-2---------------3----2--------------3----|
             ~                   ~    
----------------------------------------------|
----------------------------------------------|
----------------------------------------------|
-------6----7--------------6----5-------------|
-4-----4----5----5----4----4----3----5----4---|
-2---------------3----2--------------3----2---|
             ~                   ~    







3:30


------------------------------------------------|
------------------------------------------------|
----------------------------------_-----_-------|
---------------------------------/ \---/ \------|
--------------------------------4-3-2-0-2-0-----|
-2-2--4-2-5~~-2-4-2-5~~-2-4--2------------------|
 * *    *     *   *     *    *

------------------------------------------------|
---------------------------------_--------------|
--------------------------------/ \----_--------|
-------------------------------4-5-4--/ \-------|
-------------------------------2/3\2-0-2-0------|
-2-2--4-2-5~~-2-4-2-5~~-2-4-0-------------------|
 * *    *     *   *     *    


------------------------------------------------|
------------------------------------------------|
----------------------------------_-----_-------|
---------------------------------/ \---/ \------|
--------------------------------4-3-2-0-2-0-----|
-2-2--4-2-5~~-2-4-2-5~~-2-4--2------------------|
 * *    *     *   *     *    *

------------------------------------------------|
---------------------------------_--------------|
--------------------------------/ \----_--------|
-------------------------------4-5-4--/ \-------|
-------------------------------2/3\2-0-2-0------|
-2-2--4-2-5~~-2-4-2-5~~-2-4-0-------------------|
 * *    *     *   *     *    


------------------------------------------------|
------------------------------------------------|
----------------------------------_-----_-------|
---------------------------------/ \---/ \------|
--------------------------------4-3-2-0-2-0-----|
-2-2--4-2-5~~-2-4-2-5~~-2-4--2------------------|
 * *    *     *   *     *    *

------------------------------------------------|
---------------------------------_--------------|
--------------------------------/ \----_--------|
-------------------------------4-5-4--/ \-------|
-------------------------------2/3\2-0-2-0------|
-2-2--4-2-5~~-2-4-2-5~~-2-4-0-------------------|
 * *    *     *   *     *    



------------------------------------------------|
------------------------------------------------|
----------------------------------_-----_-------|
---------------------------------/ \---/ \------|
--------------------------------4-3-2-0-2-0-----|
-2-2--4-2-5~~-2-4-2-5~~-2-4--2------------------|
 * *    *     *   *     *    *

------------------------------------------------|
---------------------------------_--------------|
--------------------------------/ \----_--------|
-------------------------------4-5-4--/ \-------|
-------------------------------2/3\2-0-2-0------|
-2-2--4-2-5~~-2-4-2-5~~-2-4-0-------------------|
 * *    *     *   *     *    



------------------------------------------------|
------------------------------------------------|
----------------------------------_-----_-------|
---------------------------------/ \---/ \------|
--------------------------------4-3-2-0-2-0-----|
-2-2--4-2-5~~-2-4-2-5~~-2-4--2------------------|
 * *    *     *   *     *    *

------------------------------------------------|
---------------------------------_--------------|
--------------------------------/ \----_--------|
-------------------------------4-5-4--/ \-------|
-------------------------------2/3\2-0-2-0------|
-2-2--4-2-5~~-2-4-2-5~~-2-4-0-------------------|
 * *    *     *   *     *    


------------------------------------------------|
------------------------------------------------|
----------------------------------_-----_-------|
---------------------------------/ \---/ \------|
--------------------------------4-3-2-0-2-0-----|
-2-2--4-2-5~~-2-4-2-5~~-2-4--2------------------|
 * *    *     *   *     *    *

------------------------------------------------|
---------------------------------_--------------|
--------------------------------/ \----_--------|
-------------------------------4-5-4--/ \-------|
-------------------------------2/3\2-0-2-0------|
-2-2--4-2-5~~-2-4-2-5~~-2-4-0-------------------|
 * *    *     *   *     *    








-------------------------------------------------|
-------------------------------------------------|
-5--5-------7--7--------9---9-------7--7---------|
-7--7-------9--9-------10--10-------9--9---------|
------0-0-0------0-0-0--------0-0-0------0-0-0---|
-------------------------------------------------|
  |  |* * *  |  |* * *   |   |* * *  |  |* * *

-------------------------------------------------|
-------------------------------------------------|
-5--5-------7--7--------9---9-------7--7---------|
-7--7-------9--9-------10--10-------9--9---------|
------0-0-0------0-0-0--------0-0-0------0-0-0---|
-------------------------------------------------|
  |  |* * *  |  |* * *   |   |* * *  |  |* * *

-------------------------------------------------|
-------------------------------------------------|
-5--5-------7--7--------9---9-------7--7---------|
-7--7-------9--9-------10--10-------9--9---------|
------0-0-0------0-0-0--------0-0-0------0-0-0---|
-------------------------------------------------|
  |  |* * *  |  |* * *   |   |* * *  |  |* * *

-------------------------------------------------|
-------------------------------------------------|
-5--5-------7--7--------9---9-------7--7---------|
-7--7-------9--9-------10--10-------9--9---------|
------0-0-0------0-0-0--------0-0-0------0-0-0---|
-------------------------------------------------|
  |  |* * *  |  |* * *   |   |* * *  |  |* * *







4:32


------------------------------------------|
------------------------------------------|
------------------------------------------|
-4-----2-------6--7--6--2-4---------------|
-2-----0-5-----4--5--4\-0-2-----2-2--0-0--|
---------3--------------------------------|

------------------------------------------|
------------------------------------------|
------------------------------------------|
-4----2--------6--7--9--2-4---------------|
-2----0-5------4--5--7\-0-2-----2-2--0-0--|
--------3---------------------------------|


------------------------------------------|
------------------------------------------|
------------------------------------------|
-4-----2-------6--7--6--2-4---------------|
-2-----0-5-----4--5--4\-0-2-----2-2--0-0--|
---------3--------------------------------|

------------------------------------------|
------------------------------------------|
------------------------------------------|
-4----2--------6--7--9--2-4---------------|
-2----0-5------4--5--7\-0-2-----2-2--0-0--|
--------3---------------------------------|


------------------------------------------|
------------------------------------------|
------------------------------------------|
-4-----2-------6--7--6--2-4---------------|
-2-----0-5-----4--5--4\-0-2-----2-2--0-0--|
---------3--------------------------------|

------------------------------------------|
------------------------------------------|
------------------------------------------|
-4----2--------6--7--9--2-4---------------|
-2----0-5------4--5--7\-0-2-----2-2--0-0--|
--------3---------------------------------|


------------------------------------------|
------------------------------------------|
------------------------------------------|
-4-----2-------6--7--6--2-4---------------|
-2-----0-5-----4--5--4\-0-2-----2-2--0-0--|
---------3--------------------------------|

------------------------------------------|
------------------------------------------|
------------------------------------------|
-4----2--------6--7--9--2-4---------------|
-2----0-5------4--5--7\-0-2---5--7--------|
--------3---------------------3--5--------|







5:17


------------------------------------------------|
------------------------------------------------|
----------------------------------_-----_-------|
---------------------------------/ \---/ \------|
--------------------------------4-3-2-0-2-0-----|
-2-2--4-2-5~~-2-4-2-5~~-2-4--2------------------|
 * *    *     *   *     *    *
------------------------------------------------|
---------------------------------_--------------|
--------------------------------/ \----_--------|
-------------------------------4-5-4--/ \-------|
-------------------------------2/3\2-0-2-0------|
-2-2--4-2-5~~-2-4-2-5~~-2-4-0-------------------|
 * *    *     *   *     *    

------------------------------------------------|
------------------------------------------------|
----------------------------------_-----_-------|
---------------------------------/ \---/ \------|
--------------------------------4-3-2-0-2-0-----|
-2-2--4-2-5~~-2-4-2-5~~-2-4--2------------------|
 * *    *     *   *     *    *
------------------------------------------------|
---------------------------------_--------------|
--------------------------------/ \----_--------|
-------------------------------4-5-4--/ \-------|
-------------------------------2/3\2-0-2-0------|
-2-2--4-2-5~~-2-4-2-5~~-2-4-0-------------------|
 * *    *     *   *     *    





5:33


solo

w/wah throughout


---)----)----)----)----)----)----)~~~---)~~~-14--------------------------|
-14---14---14---14---14---14---14-----17-------17-14--14-----------------|
-16---16---16---16---16---16---16-------------------17--17-16-14---16-14~|
----------------------------------------------------------------16-------|
-------------------------------------------------------------------------|
-------------------------------------------------------------------------|
        



5:40

   _______               _____       ___
   )   | (              /     \     /   \
-17---17---17~~--14---14-17-14----141714------)~~~~----|
-------------------17----------17--------17-17---------|
-------------------------------------------------------|
-------------------------------------------------------|
-------------------------------------------------------|
-------------------------------------------------------|



5:44

14-------------------------------------------------------|
---17-14----14-17----14----------------14-17----14-------|
---------17-------16----17-16-14~~--17-------16----14~~--|
---------------------------------------------------------|
---------------------------------------------------------|
---------------------------------------------------------|



5:48

--------------------------------------------------------------__------|
-----17-19----17-19-17-17-19----17-19----17-14---------------/  \-----|
-/18-------18----------------18-------18-------17-14----16-14-16-14~~-|
-----------------------------------------------------16---------------|
----------------------------------------------------------------------|
----------------------------------------------------------------------|
                      |



5:52
           2 step                            
           _______                         /\       /\      /\      /\
-----------)-----(^-----)---)~~~~~-14----141714---141714--141714--141714--|
------19-19--------17-17--17----------17-------17-------17------17------17|
18-18---------------------------------------------------------------------|
--------------------------------------------------------------------------|
--------------------------------------------------------------------------|
--------------------------------------------------------------------------|
   __
  /  \       /\
14-17-14---141714-----14---)~~~-14--------------|
--------17-------17-17---17-------17-14--14-----|
---------------------------------------17--17---|
------------------------------------------------|
------------------------------------------------|
------------------------------------------------|
      

6:00                                             

------------------------------------------------|
---)---------------)---)---)---)---)---)~~~~----|
-16--16--14--16--16--16--16--16--16--16---------|
------------------------------------------------|
------------------------------------------------|
------------------------------------------------|
    |   |   |  |   |   |   |   |   |



6:05

--------------------------------------------------|
------------------------------------)----(^-------|
-/11~~~-------7---9---9~~~----7--9-9-------7------|
---------------------------------------------9~~--|
--------------------------------------------------|
--------------------------------------------------|
                |   |


6:13

---)----)~--------------------------------------|
-10---10----10-7-10--------10-7-----------------|
--------------------------------9-7-----7-------|
------------------------------------9-7---9~----|
------------------------------------------------|
------------------------------------------------|
    |





-------------------------------0----------------------|
-------4-----------2--------------0-------------------|
----------4-----------2-----4-------------------------|
----4-----------2--------2-----------5-5-5-5-5--7-----|
-2-----------0-----------------------3-3-3-3-3--5--0--|
------------------------------------------------------|

-------------------------------0----------------------|
-------4-----------2--------------0-------------------|
----------4-----------2-----4-------------------------|
----4-----------2--------2-----------5-5-5-5-5--7-----|
-2-----------0-----------------------3-3-3-3-3--5--0--|
------------------------------------------------------|

-------------------------------0----------------------|
-------4-----------2--------------0-------------------|
----------4-----------2-----4-------------------------|
----4-----------2--------2-----------5-5-5-5-5--7-----|
-2-----------0-----------------------3-3-3-3-3--5--0--|
------------------------------------------------------|

-------------------------------0----------------------|
-------4-----------2--------------0-------------------|
----------4-----------2-----4-------------------------|
----4-----------2--------2-----------5-5-5-5-5--7-----|
-2-----------0-----------------------3-3-3-3-3--5--0--|
------------------------------------------------------|

-------------------------------0----------------------|
-------4-----------2--------------0-------------------|
----------4-----------2-----4-------------------------|
----4-----------2--------2-----------5-5-5-5-5--7-----|
-2-----------0-----------------------3-3-3-3-3--5--0--|
------------------------------------------------------|

-------------------------------0----------------------|
-------4-----------2--------------0-------------------|
----------4-----------2-----4-------------------------|
----4-----------2--------2-----------5-5-5-5-5--7-----|
-2-----------0-----------------------3-3-3-3-3--5--0--|
------------------------------------------------------|







7:08



------------------_______------------------------------------------------|
------------------)~~~~|-(------/\---------------------------------------|
---^---7-----7---9-----9---7-9-7976-7-9--6-7---6-----------------_-------|
7-7-9----9-----9-----------------------------9---9-7------------/ \------|
-----------------------------------------------------9-8-7-5-7-7-8-7-5---|
-----------------------------------------------------------------------7~|



7:18
                                        __
---------------------------------------/  \--------------|
---------------------------)-----7-10-7-10-7----7--------|
--------------7-------7---9--9~~-------------10---10-9---|
----------7-9---7~--9---9--------------------------------|
----5-7-9------------------------------------------------|
5-7------------------------------------------------------|
                                  |  |         | |  | |           

---_______----------------------------|
--/       \---------------------------|
-7-9-7\6/7-9-7---7-------9-7----------|
---------------9---9-7-9-----9-7~~----|
--------------------------------------|
--------------------------------------|



7:26

   ____         ____         ____
---)  (^--------)  (^--------)  (------------|
--9-----7-9~~--9-----7-9~~--9-----7-10-12~---|
---------------------------------------------|
---------------------------------------------|
---------------------------------------------|
---------------------------------------------|



7:32

---^---------------------------------------------------|
-12-10-------------------------------------------------|
-------11-10-9-7~~----------------7--------------------|
---------------------9-7-9--7-8-9---9~~---9-7----------|
----------------------------------------------9-8-7~~--|
-------------------------------------------------------|



7:38

----------------------------------------------------------------)~~-|
------------------------------------)~~~----7-10---7-10-7---7-10----|
---_-----------------7------^--7-9-9------9------9--------9---------|
--/ \------------7-9---7~--7-9--------------------------------------|
-5-7-5-4-5-7-7/9----------------------------------------------------|
--------------------------------------------------------------------|



7:44             _
                / \
-7----7-9-10-9-7-9-7----7---)~~~~-7--------)-7--------)----|
---10----------------10---10--------10-7-10----10-7-10-----|
-----------------------------------------------------------|
-----------------------------------------------------------|
-----------------------------------------------------------|
-----------------------------------------------------------|

  
  
-7-10-7----7-10-7----7-10-7----7-10-7----7-10-7----7-10-7-----|
--------10--------10--------10--------10--------10--------10--|
--------------------------------------------------------------|
--------------------------------------------------------------|
--------------------------------------------------------------|
--------------------------------------------------------------|


-7-10-7----7-10-7----7-10-7----7-10-7-----|
--------10--------10--------10--------10--|
------------------------------------------|
------------------------------------------|
------------------------------------------|
------------------------------------------|



7:51

--------7-------------------------------------------------------------|
-7-9-10---10-9-7-------7----------------------------------------------|
-----------------9-7-9---9-7-------7---------___________---------7----|
-----------------------------9-7-9---9-7----/           \----7-9---7~~|
-----------------------------------------9-7-9-7-5-7-5-7-5-9----------|
----------------------------------------------------------------------|


----------------_______---------------------------------------------|
------)---------)     (^---------____---------____------------------|
---7-9---7---7-9--------7--------)  (---------)  (-----------11-----|
-9---------9--------------9~---11-----9~~---12-----9~~--12-9----12--|
--------------------------------------------------------------------|
--------------------------------------------------------------------|




-------------------------------------------------|
--------____---------____------------------------|
--------)  (---------)  (------------------------|
-9~---11-----9~~---12-----9~~--5-5-5-5-5--7------|
-------------------------------3-3-3-3-3--5--0---|
-------------------------------------------------|




-------------------------------0----------------------|
-------4-----------2--------------0-------------------|
----------4-----------2-----4-------------------------|
----4-----------2--------2-----------5-5-5-5-5--7-----|
-2-----------0-----------------------3-3-3-3-3--5--0--|
------------------------------------------------------|

-------------------------------0----------------------|
-------4-----------2--------------0-------------------|
----------4-----------2-----4-------------------------|
----4-----------2--------2-----------5-5-5-5-5--7-----|
-2-----------0-----------------------3-3-3-3-3--5--0--|
------------------------------------------------------|

-------------------------------0----------------------|
-------4-----------2--------------0-------------------|
----------4-----------2-----4-------------------------|
----4-----------2--------2-----------5-5-5-5-5--7-----|
-2-----------0-----------------------3-3-3-3-3--5--0--|
------------------------------------------------------|

-------------------------------0----------------------|
-------4-----------2--------------0-------------------|
----------4-----------2-----4-------------------------|
----4-----------2--------2-----------5-5-5-5-5--7-----|
-2-----------0-----------------------3-3-3-3-3--5-----|
------------------------------------------------------|

----------------------------------|
----------------------------------|
----------------------------------|
-4--------------------444---------|
-2--------------------222---------|
----------------------------------|
                          |






|||||||||||||||||||||||||||||||||||||||||||||||||||||||||||
|||||||||||||||||||||||||||||||||||||||||||||||||||||||||||
|||||||||||||||||||||||||||||||||||||||||||||||||||||||||||
|||||||||||||||||||||||||||||||||||||||||||||||||||||||||||
|||||||||||||||||||||||||||||||||||||||||||||||||||||||||||
|||||||||||||||||||||||||||||||||||||||||||||||||||||||||||








TRACK 2

GOD IS DEAD

FLAT STANDARD TUNING

Eb Ab Db Gb Bb Eb 



--------------------------------------------------------------------|
--------------------------------------------------------------------|
-------0-------0-------0-------0-------0-------0--------0-------0---|
-----9-------8-------9-------8-------9-------8-------10-------8-----|
---7-------7-------7-------7-------7-------7-------7--------7-------|
-0-------0-------0-------0-------0-------0-------0--------0---------|


--------------------------------------------------------------------|
--------------------------------------------------------------------|
-------0-------0-------0-------0-------0-------0--------0-------0---|
-----9-------8-------9-------8-------9-------8-------10-------8-----|
---7-------7-------7-------7-------7-------7-------7--------7-------|
-0-------0-------0-------0-------0-------0-------0--------0---------|






0:33


--------------------------------------------------------------------|
--------------------------------------------------------------------|
--------------------------------------------------------------------|
-7-9-----------7-9---11--12--------7-9-----------7-9---11--12-----7-|
-5-7-----------5-7----9--10--------5-7-----------5-7----9--10-----5-|
--------------------------------------------------------------------|
                           ~                                 ~


-----------------------------------------------------------------------|
-----------------------------------------------------------------------|
-----------------------------------------------------------------------|
-7-9-----------7-9---11--12--------7-9-----------7-9-------------------|
-5-7-----------5-7----9--10--------5-7-----------5-7---9--8----5-------|
-------------------------------------------------------7--6----3----0--|
                           ~                               




1:04

-------------------------------------------------------------------|
-------------------------------------------------------------------|
-------0-------0-------0-------0-------0-------0-------0-------0---|
-----9-------8-------9-------8-------9-------8-------9-------8-----|
---7-------7-------7-------7-------7-------7-------7-------7-------|
-0-------0-------0-------0-------0-------0-------0-------0---------|


---------------------------------|
---------------------------------|
-------0-------0-------0---------|
-----9-------8-------9-------8---|
---7-------7-------7-------7-----|
-0-------0-------0-------0-------|



1:28

-------------------------------------------------------------------|
-------------------------------------------------------------------|
-------0-------0-------0-------0-------0-------0-------0-------0---|
-----9-------8-------9-------8-------9-------8-------9-------8-----|
---7-------7-------7-------7-------7-------7-------7-------7-------|
-0-------0-------0-------0-------0-------0-------0-------0---------|


-------------------------------------------------------------------|
-------------------------------------------------------------------|
-------0-------0-------0-------0-------0-------0-------0-------0---|
-----9-------8-------9-------8-------9-------8-------9-------8-----|
---7-------7-------7-------7-------7-------7-------7-------7-------|
-0-------0-------0-------0-------0-------0-------0-------0---------|


-------------------------------------------------------------------|
-------------------------------------------------------------------|
-------0-------0-------0-------0-------0-------0-------0-------0---|
-----9-------8-------9-------8-------9-------8-------9-------8-----|
---7-------7-------7-------7-------7-------7-------7-------7-------|
-0-------0-------0-------0-------0-------0-------0-------0---------|






2:16


-------------------------------------------------------|
-------------------------------------------------------|
-------------------------------------------------------|
-5------5------5------5-5-5-5-4-------4---4------------|
-3------3------3------3-3-3-3-2-------2---2-0-5----4---|
----------------------------------------------3----2---|

-------------------------------------------------------|
-------------------------------------------------------|
-------------------------------------------------------|
-------------------------------------------------------|
-------7-6-5---------------------7-6-5-----------------|
-0---0-------7-6~--0-6-7~--0---0-------7-6~--0-6-5~----|



-------------------------------------------------------|
-------------------------------------------------------|
-------------------------------------------------------|
-5------5------5------5-5-5-5-4-------4---4------------|
-3------3------3------3-3-3-3-2-------2---2-0-5----4---|
----------------------------------------------3----2---|

--------------------------------------------------------|
--------------------------------------------------------|
--------------------------------------------------------|
--------------------------------------------------------|
-------7-6-5---------------------7-6-5------------------|
-0---0-------7-6~--0-6-7~--0---0-------7-6~--0-6-5~---0-|






2:49

-------------------------------------------------------------------|
-------------------------------------------------------------------|
-------0-------0-------0-------0-------0-------0-------0-------0---|
-----9-------8-------9-------8-------9-------8-------9-------8-----|
---7-------7-------7-------7-------7-------7-------7-------7-------|
-0-------0-------0-------0-------0-------0-------0-------0---------|



-------------------------------------------------------------------|
-------------------------------------------------------------------|
-----------------------------------------0-------0-------0-------0-|
-----5--------10-------5-------8-------9-------8-------9-------8---|
---7---7---/9----9---7---7---7---7---7-------7-------7-------7-----|
-0-------0---------0-------0-------0-------0-------0-------0-------|



-------------------------------------------------------------------|
-------------------------------------------------------------------|
-----------------------------------------0-------0-------0-------0-|
-----5--------10-------5-------8-------9-------8-------9-------8---|
---7---7---/9----9---7---7---7---7---7-------7-------7-------7-----|
-0-------0---------0-------0-------0-------0-------0-------0-------|



-------------------------------------------------------------------|
-------------------------------------------------------------------|
-----------------------------------------0-------0-------0-------0-|
-----5--------10-------5-------8-------9-------8-------9-------8---|
---7---7---/9----9---7---7---7---7---7-------7-------7-------7-----|
-0-------0---------0-------0-------0-------0-------0-------0-------|



-------------------------------------|
-------------------------------------|
-------------------------------------|
-----5--------10-------5-------8-----|
---7---7---/9----9---7---7---7---7---|
-0-------0---------0-------0---------|





4:03



--------------------------------------------|
--------------------------------------------|
-----0-----------------------------6-7------|
---4---4-----5-----7----7----7-----4-5--7-6-|
-3-------3---3-0-0-5----5----5-5-0------5\4-|
--------------------------------------------|
               * *             * *    ~


--------------------------------------------|
--------------------------------------------|
-----0-----------------------------6-7------|
---4---4-----5-----7----7----7-----4-5-7-6--|
-3-------3---3-0-0-5----5----5-5-0-----5-4--|
--------------------------------------------|
               * *             * *    


-----------------------------------------|
-----------------------------------------|
-----0-----------------------------7-----|
---4---4-----5-----7----7----7--7--5--7--|
-3-------3---3-0-0-5----5----5--5-----5--|
-----------------------------------------|
               * *                 






4:27


----------------------------------------------------------|
----------------------------------------------------------|
----------------------------------------------------------|
--------9-12----------9-8----------9-12----------9-8------|
--------7-10----------7-6----------7-10----------7-6------|
-0--0-0--------0--0-0-------0--0-0--------0--0-0----------|
            ~            ~             ~            ~

----------------------------------------------------------|
----------------------------------------------------------|
----------------------------------------------------------|
--------9-12----------9-8----------9-12----------9-8------|
--------7-10----------7-6----------7-10----------7-6------|
-0--0-0--------0--0-0-------0--0-0--------0--0-0----------|
            ~            ~             ~            ~

----------------------------------------------------------|
----------------------------------------------------------|
----------------------------------------------------------|
--------9-12----------9-8----------9-12----------9-8------|
--------7-10----------7-6----------7-10----------7-6------|
-0--0-0--------0--0-0-------0--0-0--------0--0-0----------|
            ~            ~             ~            ~

----------------------------------------------------------|
----------------------------------------------------------|
----------------------------------------------------------|
--------9-12----------9-8----------9-12----------9-8------|
--------7-10----------7-6----------7-10----------7-6------|
-0--0-0--------0--0-0-------0--0-0--------0--0-0----------|
            ~            ~             ~            ~

----------------------------------------------------------|
----------------------------------------------------------|
----------------------------------------------------------|
--------9-12----------9-8----------9-12----------9-8------|
--------7-10----------7-6----------7-10----------7-6------|
-0--0-0--------0--0-0-------0--0-0--------0--0-0----------|
            ~            ~             ~            ~

----------------------------------------------------------|
----------------------------------------------------------|
----------------------------------------------------------|
--------9-12----------9-8----------9-12----------9-8------|
--------7-10----------7-6----------7-10----------7-6------|
-0--0-0--------0--0-0-------0--0-0--------0--0-0----------|
            ~            ~             ~            ~





5:15


-------------------------------------------------------|
-------------------------------------------------------|
-------------------------------------------------------|
-5------5------5------5-5-5-5-4-------4---4------------|
-3------3------3------3-3-3-3-2-------2---2-0-5----4---|
----------------------------------------------3----2---|

-------------------------------------------------------|
-------------------------------------------------------|
-------------------------------------------------------|
-------------------------------------------------------|
-------7-6-5---------------------7-6-5-----------------|
-0---0-------7-6~--0-6-7~--0---0-------7-6~--0-6-5~----|



-------------------------------------------------------|
-------------------------------------------------------|
-------------------------------------------------------|
-5------5------5------5-5-5-5-4-------4---4------------|
-3------3------3------3-3-3-3-2-------2---2-0-5----4---|
----------------------------------------------3----2---|

--------------------------------------------------------|
--------------------------------------------------------|
--------------------------------------------------------|
--------------------------------------------------------|
-------7-6-5---------------------7-6-5------------------|
-0---0-------7-6~--0-6-7~--0---0-------7-6~--0-6-5~--0--|






5:48


--------------------------------------------------------------------|
--------------------------------------------------------------------|
--------------------------------------------------------------------|
-7-9-----------7-9---11--12--------7-9-----------7-9---11--12-----7-|
-5-7-----------5-7----9--10--------5-7-----------5-7----9--10-----5-|
--------------------------------------------------------------------|
                           ~                                 ~


-----------------------------------------------------------------------|
-----------------------------------------------------------------------|
-----------------------------------------------------------------------|
-7-9-----------7-9---11--12--------7-9-----------7-9-------------------|
-5-7-----------5-7----9--10--------5-7-----------5-7---8--7----5-------|
-------------------------------------------------------6--5----3----0--|
                           ~                                         |






6:19


-------------------------------------------------------------------------|
-------------------------------------------------------------------------|
-------------------------------------------------------------------------|
------------5-----------------------------------5------------------------|
----7-5-7~----7-5----5------------------7-5-7~----7-5----5---------------|
0-0---------------7~---7-6-5~-0-3-5-0-0---------------7~---7-6-5~-0-3-5-0|


B
-------------------------------------------------------------------------|
-------------------------------------------------------------------------|
-------------------------------------------------------------------------|
------------5-----------------------------------5------------------------|
----7-5-7~----7-5----5------------------7-5-7~----7-5----5---------------|
0-0---------------7~---7-6-5~-0-3-5-0-0---------------7~---7-6-5~-0-3-5-0|





6:35


------------------------------------------------------------------|
------------------------------------------------------------------|
------------------------------------------------------------------|
------------------------------------------------------------------|
-----5-------5------5-------7-8-------5-------5------5-------8-7--|
-0-0-3---0-0-3--0-0-3---0-0-5/6---0-0-3---0-0-3--0-0-3---0-0-6\5--|
 * *     * *    * *     * *       * *     * *    * *     * *


------------------------------------------------------------------|
------------------------------------------------------------------|
------------------------------------------------------------------|
------------------------------------------------------------------|
-----5-------5------5-------7-8-------5-------5------5-------8-7--|
-0-0-3---0-0-3--0-0-3---0-0-5/6---0-0-3---0-0-3--0-0-3---0-0-6\5--|
 * *     * *    * *     * *       * *     * *    * *     * *


------------------------------------------------------------------|
------------------------------------------------------------------|
------------------------------------------------------------------|
------------------------------------------------------------------|
-----5-------5------5-------7-8-------5-------5------5-------8-7--|
-0-0-3---0-0-3--0-0-3---0-0-5/6---0-0-3---0-0-3--0-0-3---0-0-6\5--|
 * *     * *    * *     * *       * *     * *    * *     * *


------------------------------------------------------------------|
------------------------------------------------------------------|
------------------------------------------------------------------|
------------------------------------------------------------------|
-----5-------5------5-------7-8-------5-------5------5-------8-7--|
-0-0-3---0-0-3--0-0-3---0-0-5/6---0-0-3---0-0-3--0-0-3---0-0-6\5--|
 * *     * *    * *     * *       * *     * *    * *     * *





7:06


------------------------------------------------------------------------|
------------------------------------------------------------------------|
------------------------------------------------------------------------|
------------5-----------------------------------5-----------------------|
----7-5-7~----7-5----5------------------7-5-7~----7-5----5--------------|
0-0---------------7~---7-6-5~-0-3-5-0-0---------------7~---7-6-5~-0-3-5-|


------------------------------------------------------------------------|
------------------------------------------------------------------------|
------------------------------------------------------------------------|
------------5-----------------------------------5-----------------------|
----7-5-7~----7-5----5------------------7-5-7~----7-5----5--------------|
0-0---------------7~---7-6-5~-0-3-5-0-0---------------7~---7-6-5~-0-3-5-|






7:22

-----------------------------------------------------------------------|
-----------------------------------------------------------------------|
-----------------------------------------------------------------------|
-9----11--12----12-14--7----7--9------9----11--12----12-14--7-----7--9-|
-7-----9--10----10-12--5----5--7------7-----9--10----10-12--5-----5--7-|
-----------------------------------------------------------------------|
            ~                   ~                ~           ~
    







SOLO

PREVIOUS RIFF REPEATS DURING SOLO



7:38

---------------------------------------------------------|
-------------15-12~--\------)----)----)------------------|
-----11--12---------------14---14---14---12--14--12------|
-14-------------------------------------------------14~--|
---------------------------------------------------------|
---------------------------------------------------------|
                       |     |    |    |   |   |


7:46

----------------------------------------------__--------------------------|
-15-15----15-15-13------------)--------------/  \-------------------------|
/16-----16---16\14-14-12-14-14--14--12~----11-12-11----------12-----------|
---------------------------------------------------12--12-12----14-14--14~|
-----------------------------------------------------14-------------------|
--------------------------------------------------------------------------|
      |                    |   |  |




7:54

------------------------------------------------------------------------|
------------------------------------------------------------------------|
------------------------------------------------------------------------|
------------5-----------------------------------5-----------------------|
----7-5-7~----7-5----5------------------7-5-7~----7-5----5--------------|
0-0---------------7~---7-6-5~-0-3-5-0-0---------------7~---7-6-5~-0-3-5-|



-------------------------------------------------------------------------|
-------------------------------------------------------------------------|
-------------------------------------------------------------------------|
------------5-----------------------------------5------------------------|
----7-5-7~----7-5----5------------------7-5-7~----7-5----5---------------|
0-0---------------7~---7-6-5~-0-3-5-0-0---------------7~---7-6-5~-0-3-5-0|






8:10


-------------------------------------------------------|
-------------------------------------------------------|
-------------------------------------------------------|
-5------5------5------5-5-5-5-4-------4---4------------|
-3------3------3------3-3-3-3-2-------2---2-0-5----4---|
----------------------------------------------3----2---|


-------------------------------------------------------|
-------------------------------------------------------|
-------------------------------------------------------|
-------------------------------------------------------|
-------7-6-5---------------------7-6-5-----------------|
-0---0-------7-6~--0-6-7~--0---0-------7-6~--0-6-5~----|



-------------------------------------------------------|
-------------------------------------------------------|
-------------------------------------------------------|
-5------5------5------5-5-5-5-4-------4---4------------|
-3------3------3------3-3-3-3-2-------2---2-0-5----4---|
----------------------------------------------3----2---|


-------------------------------------------------------|
-------------------------------------------------------|
-------------------------------------------------------|
-------------------------------------------------------|
-------7-6-5---------------------7-6-5-----------------|
-0---0-------7-6~--0-6-7~--0---0-------7-6~--0-6-5~----|


------------------------------------------------------|
------------------------------------------------------|
------------------------------------------------------|
------------------------------------------------------|
-------7-6-5---------------------7-6-5---------8-7----|
-0---0-------7-6~--0-6-7~--0---0-------7-6~--0-6-5----|









|||||||||||||||||||||||||||||||||||||||||||||||||||||||||||
|||||||||||||||||||||||||||||||||||||||||||||||||||||||||||
|||||||||||||||||||||||||||||||||||||||||||||||||||||||||||
|||||||||||||||||||||||||||||||||||||||||||||||||||||||||||
|||||||||||||||||||||||||||||||||||||||||||||||||||||||||||
|||||||||||||||||||||||||||||||||||||||||||||||||||||||||||










TRACK 3

LONER


E STANDARD DETUNED TUNING  or  Eb TUNING WITH ALL NOTES SHARP 
(in between Eb and E)


  Eb+-Ab+-Db+-Gb+-Bb+-Eb+





---------------------------------------------|
---------------------------------------------|
---------------------------------------------|
--------12---------------------12------------|
14-14---10---12-12-14--14-14---10---12-14-12-|
12-12-x----x-10-10/12--12-12-x----x-10/12-10-|

---------------------------------------------|
---------------------------------------------|
---------------------------------------------|
---------12----------------------14-13-12----|
-14-14---10---12-12-14--14-14---/12-11-10----|
-12-12-x----x-10-10/12--12-12-x--------------|



---------------------------------------------|
---------------------------------------------|
---------------------------------------------|
--------12---------------------12------------|
14-14---10---12-12-14--14-14---10---12-14-12-|
12-12-x----x-10-10/12--12-12-x----x-10/12-10-|

---------------------------------------------|
---------------------------------------------|
---------------------------------------------|
---------12----------------------14-13-12----|
-14-14---10---12-12-14--14-14---/12-11-10----|
-12-12-x----x-10-10/12--12-12-x--------------|


---------------------------------------------|
---------------------------------------------|
---------------------------------------------|
--------12---------------------12------------|
14-14---10---12-12-14--14-14---10---12-14-12-|
12-12-x----x-10-10/12--12-12-x----x-10/12-10-|

---------------------------------------------|
---------------------------------------------|
---------------------------------------------|
---------12----------------------14-13-12----|
-14-14---10---12-12-14--14-14---/12-11-10----|
-12-12-x----x-10-10/12--12-12-x--------------|


---------------------------------------------|
---------------------------------------------|
---------------------------------------------|
--------12---------------------12------------|
14-14---10---12-12-14--14-14---10---12-14-12-|
12-12-x----x-10-10/12--12-12-x----x-10/12-10-|

---------------------------------------------|
---------------------------------------------|
---------------------------------------------|
---------12----------------------14-13-12----|
-14-14---10---12-12-14--14-14---/12-11-10----|
-12-12-x----x-10-10/12--12-12-x--------------|


---------------------------------------------|
---------------------------------------------|
---------------------------------------------|
--------12---------------------12------------|
14-14---10---12-12-14--14-14---10---12-14-12-|
12-12-x----x-10-10/12--12-12-x----x-10/12-10-|

---------------------------------------------|
---------------------------------------------|
---------------------------------------------|
---------12----------------------14-13-12----|
-14-14---10---12-12-14--14-14---/12-11-10----|
-12-12-x----x-10-10/12--12-12-x--------------|


---------------------------------------------|
---------------------------------------------|
---------------------------------------------|
--------12---------------------12------------|
14-14---10---12-12-14--14-14---10---12-14-12-|
12-12-x----x-10-10/12--12-12-x----x-10/12-10-|

---------------------------------------------|
---------------------------------------------|
---------------------------------------------|
---------12----------------------14-13-12----|
-14-14---10---12-12-14--14-14---/12-11-10----|
-12-12-x----x-10-10/12--12-12-x--------------|


---------------------------------------|
---------------------------------------|
---------------------------------------|
---------------------------------------|
-7--------------7----------------------|
----7--6--7--0-----7--6--5--3--0-------|







1:02


---------------------------------------------|
---------------------------------------------|
---------------------------------------------|
--------12---------------------12------------|
14-14---10---12-12-14--14-14---10---12-14-12-|
12-12-x----x-10-10/12--12-12-x----x-10/12-10-|

---------------------------------------------|
---------------------------------------------|
---------------------------------------------|
---------12----------------------14-13-12----|
-14-14---10---12-12-14--14-14---/12-11-10----|
-12-12-x----x-10-10/12--12-12-x--------------|



---------------------------------------------|
---------------------------------------------|
---------------------------------------------|
--------12---------------------12------------|
14-14---10---12-12-14--14-14---10---12-14-12-|
12-12-x----x-10-10/12--12-12-x----x-10/12-10-|

---------------------------------------------|
---------------------------------------------|
---------------------------------------------|
---------12----------------------14-13-12----|
-14-14---10---12-12-14--14-14---/12-11-10----|
-12-12-x----x-10-10/12--12-12-x--------------|


---------------------------------------------|
---------------------------------------------|
---------------------------------------------|
--------12---------------------12------------|
14-14---10---12-12-14--14-14---10---12-14-12-|
12-12-x----x-10-10/12--12-12-x----x-10/12-10-|

---------------------------------------------|
---------------------------------------------|
---------------------------------------------|
---------12----------------------14-13-12----|
-14-14---10---12-12-14--14-14---/12-11-10----|
-12-12-x----x-10-10/12--12-12-x--------------|


---------------------------------------------|
---------------------------------------------|
---------------------------------------------|
--------12---------------------12------------|
14-14---10---12-12-14--14-14---10---12-14-12-|
12-12-x----x-10-10/12--12-12-x----x-10/12-10-|

---------------------------------------------|
---------------------------------------------|
---------------------------------------------|
---------12----------------------14-13-12----|
-14-14---10---12-12-14--14-14---/12-11-10----|
-12-12-x----x-10-10/12--12-12-x--------------|


---------------------------------------------|
---------------------------------------------|
---------------------------------------------|
--------12---------------------12------------|
14-14---10---12-12-14--14-14---10---12-14-12-|
12-12-x----x-10-10/12--12-12-x----x-10/12-10-|

---------------------------------------------|
---------------------------------------------|
---------------------------------------------|
---------12----------------------14-13-12----|
-14-14---10---12-12-14--14-14---/12-11-10----|
-12-12-x----x-10-10/12--12-12-x--------------|







1:47


----------------------------------------------------------------------|
-----0---0---0--------0---0---0---------------------------0---0---0---|
---0---0---0---0----0---0---0---0------11--11--11-------0---0---0---0-|
-----------------11------------------12--12--12--12-------------------|
14----------------9---------------12----------------14----------------|
12--------------------------------10----------------12----------------|


-------------------------------------------------------0----|
-----0---0---0--------0---0---0------------------------0----|
---0---0---0---0----0---0---0---0------11--11----------0----|
-----------------11------------------12--12--12-------14----|
14----------------9---------------12-----------12-10--14----|
12--------------------------------10------------------12----|







2:07


---------------------------_---------------------------------------|
--------------------------/ \--------------------------------------|
-----5---7---5------5----8-7-5-7-5------5---7---5------5------5----|
-----5---7---5------5----8\7-5-7-5------5---7---5------5------5----|
-7-7-----------7--7---7-------------7-7-----------7--7---7--7---7--|
-5-5---5---5---5--5---5-------------5-5---5---5---5--5---5--5---5--|


---------------------------_---------------------------------------|
--------------------------/ \--------------------------------------|
-----5---7---5------5----8-7-5-7-5------5---7---5------5------5----|
-----5---7---5------5----8\7-5-7-5------5---7---5------5------5----|
-7-7-----------7--7---7-------------7-7-----------7--7---7--7---7--|
-5-5---5---5---5--5---5-------------5-5---5---5---5--5---5--5---5--|


---------------------------_---------------------------------------|
--------------------------/ \--------------------------------------|
-----5---7---5------5----8-7-5-7-5------5---7---5------5------5----|
-----5---7---5------5----8\7-5-7-5------5---7---5------5------5----|
-7-7-----------7--7---7-------------7-7-----------7--7---7--7---7--|
-5-5---5---5---5--5---5-------------5-5---5---5---5--5---5--5---5--|





2:34


-------------------------------------------------------------------------|
-------------------------------------------------------------------------|
----------------7-9-----------9-8-7----------------7-9-----------7-12-9--|
----------------7-9-----------9-8-7----------------7-9-----------7-12-9--|
----------------5/7-----------7-6-5----------------5/7-----------5/10-7--|
-0-0-3~-0-5~-0-------0-0-3~-0--------0-0-3~-0-5~-0------0-0-3~-0---------|

-------------------------------------------------------------------------|
-------------------------------------------------------------------------|
----------------7-9-----------9-8-7----------------7-9-----------7-12-9--|
----------------7-9-----------9-8-7----------------7-9-----------7-12-9--|
----------------5/7-----------7-6-5----------------5/7-----------5/10-7--|
-0-0-3~-0-5~-0-------0-0-3~-0--------0-0-3~-0-5~-0------0-0-3~-0---------|








2:51
   ____                    __
---)--|-------------------/  \----------------|
-12--12---------10--13--10-13-10----10--------|
-15--15--14~~--------------------12----13~~~~-|
----------------------------------------------|
----------------------------------------------|
----------------------------------------------|
                  |   |



2:55

----------------------------------------------|
tr~~~~~~~~~~~~~~~~~~~~~~~~~~~~~~~-------------|
-9-12-----------------------------------------|
----------------------------------11----------|
-------------------------------------12~~~~---|
----------------------------------------------|


3:00

-----------______-------------|
-----------)-----(------------|
------5---7---------5---------|
-\5~~---7-------------7~~~----|
------------------------------|
------------------------------|


3:04
        __             _
-------/  \--8--------/ \-----------------_------------------------|
-10---8-10-8---10-7--5-7-5---5--)--------/ \-----------------------|
---------------------------7---5-----7--5-7-5----------------------|
----------------------------------7-----------7-5------------------|
--------------------------------------------------7-5-3---3-5-3~---|
--------------------------------------------------------5--------5-|
   |               |                  |



3:08


---------------------------------------------|
---------------------------------------------|
---------------------------------------------|
--------12---------------------12------------|
14-14---10---12-12-14--14-14---10---12-14-12-|
12-12-x----x-10-10/12--12-12-x----x-10/12-10-|

---------------------------------------------|
---------------------------------------------|
---------------------------------------------|
---------12----------------------14-13-12----|
-14-14---10---12-12-14--14-14---/12-11-10----|
-12-12-x----x-10-10/12--12-12-x--------------|



---------------------------------------------|
---------------------------------------------|
---------------------------------------------|
--------12---------------------12------------|
14-14---10---12-12-14--14-14---10---12-14-12-|
12-12-x----x-10-10/12--12-12-x----x-10/12-10-|

---------------------------------------------|
---------------------------------------------|
---------------------------------------------|
---------12----------------------14-13-12----|
-14-14---10---12-12-14--14-14---/12-11-10----|
-12-12-x----x-10-10/12--12-12-x--------------|




3:35

----------------------------------------------------------------------|
-----0---0---0--------0---0---0---------------------------0---0---0---|
---0---0---0---0----0---0---0---0------11--11--11-------0---0---0---0-|
-----------------11------------------12--12--12--12-------------------|
14----------------9---------------12----------------14----------------|
12--------------------------------10----------------12----------------|


----------------------------------------------------------------------|
-----0---0---0--------0---0---0---------------------------0---0---0---|
---0---0---0---0----0---0---0---0------11--11--11-------0---0---0---0-|
-----------------11------------------12--12--12--12-------------------|
14----------------9---------------12----------------14----------------|
12--------------------------------10----------------12----------------|

----------------------------------------------------------------------|
-----0---0---0--------0---0---0---------------------------0---0---0---|
---0---0---0---0----0---0---0---0------11--11--11-------0---0---0---0-|
-----------------11------------------12--12--12--12-------------------|
14----------------9---------------12----------------14----------------|
12--------------------------------10----------------12----------------|

-----------------------------------------------------0---|
-----0---0---0--------0---0---0----------------------0---|
---0---0---0---0----0---0---0---0------11--11--11----0---|
-----------------11------------------12--12--12--12-14---|
14----------------9---------------12----------------14---|
12--------------------------------10----------------12---|






4:13


-------)-------------------------------------------------------|
-----10------10~~~~~~~~\---------10-8--------------------------|
9-12----------------------------------9--9~~~~~~~~~~~~~--------|
---------------------------------------------------------------|
---------------------------------------------------------------|
---------------------------------------------------------------|
         |                             |


4:22

------------------------------------------------------------------|
-8--8~~~~---^----8--------------------_---------------------------|
-----------9-7-9---9~~~~~------------/ \--------------------------|
------------------------------------5-7-5-7--7~~---7--5-7-5-------|
------------------------------------------------------------7~~\--|
------------------------------------------------------------------|
  |                                        |



4:3
   __________           
   )  |  |  |           )(
-17--17-17-17-17~~~~--17---15----17-15------)---)~~~-----|
------------------------------17-------17-18--18---------|
---------------------------------------------------------|
---------------------------------------------------------|
---------------------------------------------------------|
---------------------------------------------------------|


    
4:36
                ~~~~~~~~~
-15-----15------)------|-(---------------|
-----17----17-15------15---12----12------|
------------------------------14----12---|
-----------------------------------------|
-----------------------------------------|
-----------------------------------------|
   |


4:40

   )(                          ______
-15---12-15-12----12---)~~~~~--)--|-(-------------------|
---------------15----15------15--15---12--15--12--------|
-------------------------------------------------12~~---|
--------------------------------------------------------|
--------------------------------------------------------|
--------------------------------------------------------|


4:45

-----------------------------------------------------------------|
------------------------------)(^--------------------------------|
-/14-12~~~------------------14---12-14-12-14-12------------------|
-----------/14-12~~------------------------------14-12-----------|
---------------------12--------------------------------14-13-12--|
-----------------------------------------------------------------|










|||||||||||||||||||||||||||||||||||||||||||||||||||||||||||
|||||||||||||||||||||||||||||||||||||||||||||||||||||||||||
|||||||||||||||||||||||||||||||||||||||||||||||||||||||||||
|||||||||||||||||||||||||||||||||||||||||||||||||||||||||||
|||||||||||||||||||||||||||||||||||||||||||||||||||||||||||
|||||||||||||||||||||||||||||||||||||||||||||||||||||||||||






TRACK 4


ZEITGEIST

Eb-Ab-Db-Gb-Bb-Eb





note:each time is played a little differently in these spots
 sometimes more notes stacked/sometimes less- strummed harder/softer etc.
i did my best to listen and put down what i heard

             *             *        *

------0--0-------------------0--0-------------|
------0--0-------------------0--0-------------|
------0--0-------------------0--0---0---------|
------2--2---2---------------2--2---2---------|
------2--2---2------0-2------2--2---2---------|
-0----0--0---0--0-3-----0--0-0--0---0-0-3--3~-|
                            



------0--0---0---------------0--0-------------|
------0--0---0---------------0--0-------------|
------0--0---0---------------0--0-------------|
------2--2---2---------------2--2-------------|
------2--2---2------0-2----2-2--2-------------|
-0----0--0---0--0-3-----0--0-0--0---0-0-3--3~-|
                           



------0--0---0---------------0--0-------------|
------0--0---0---------------0--0-------------|
------0--0---0---------------0--0-------------|
------2--2---2---------------2--2-------------|
------2--2---2------0-2------2--2-------------|
-0----0--0---0--0-3-----0----0--0---0-0-3--3~-|



------0--0---0---------------0--0---0---------|
------0--0---0---------------0--0---0---------|
------0--0---0---------------0--0---0---------|
------2--2---2---------------2--2---2---------|
------2--2---2------0-2----2-2--2---2-0-------|
-0----0--0---0--0-3-----0--0-0--0---0-0-3--3~-|



------0--0---0---------------0--0-------------|
------0--0---0---------------0--0-------------|
------0--0---0---------------0--0---0---------|
------2--2---2---------------2--2---2---------|
------2--2---2------0-2----2-2--2---2---------|
-0----0--0---0--0-3-----0--0-0--0---0-0-3--3~-|
                            

------0--0-------------------0--0-------------|
------0--0-------------------0--0-------------|
------0--0---0---------------0--0-------------|
------2--2---2---------------2--2-------------|
------2--2---2------0-2----2-2--2-------------|
-0----0--0---0--0-3-----0--0-0--0---0-0-3--3~-|






1;02


----------------------------------------------------------|
------8-----8------8-0-0----------------------------------|
----5-----5------5-------5---------7-----7-----7----------|
---------------------------7-----5-----5-----5---5--------|
-0-------------0-----------------------------------7--5~--|
------------------------------0---------------------------|



----------------------------------------------------------|
------8-----8------8-0-0----------------------------------|
----5-----5------5-------5---------7-----7-----7----------|
---------------------------7-----5-----5-----5---5--------|
-0-------------0-----------------------------------7--5~--|
------------------------------0---------------------------|



----------------------------------------------------------|
------8-----8------8-0-0----------------------------------|
----5----5-------5-------5---------7-----7-----7----------|
---------------------------7-----5-----5-----5---5--------|
-0-------------0-----------------------------------7--5~--|
------------------------------0---------------------------|



----------------------------------------------------------------|
------8-----8------8-0-0----------------------------------------|
----5----5-------5-------5--------------------------------------|
---------------------------7-----12------11-----9-----7-5-------|
-0-------------0--------------10----10-9----9-7---7-5------3--2-|
----------------------------------------------------------------|







1:35


------0--0---0---------------0--0-------------|
------0--0---0---------------0--0-------------|
------0--0---0---------------0--0-------------|
------2--2---2---------------2--2-------------|
------2--2---2------0-2------2--2-------------|
-0----0--0---0--0-3-----0--0-0--0---0-0-3--3~-|
                            

------0--0-------------------0--0--------------|
------0--0-------------------0--0--------------|
------0--0---0---------------0--0--------------|
------2--2---2---------------2--2--------------|
------2--2---2------0-2----2-2--2----0-2-------|
-0----0--0---0--0-3-----0--0-0--0--3-----3--3~-|
   
                         
------0--0-------------------0--0-------------|
------0--0-------------------0--0-------------|
------0--0---0---------------0--0-------------|
------2--2---2---------------2--2-------------|
------2--2---2------0-2----2-2--2-------------|
-0----0--0---0--0-3-----0--0-0--0---0-0-3--3~-|



------0--0---0---------------0--0-------------|
------0--0---0---------------0--0-------------|
------0--0---0---------------0--0-------------|
------2--2---2---------------2--2-------------|
------2--2---2------0-2------2--2---2---------|
-0----0--0---0--0-3-----0----0--0---0-0-3--3~-|


------0--0---0---------------0--0-------------|
------0--0---0---------------0--0-------------|
------0--0---0---------------0--0-------------|
------2--2---2---------------2--2-------------|
------2--2---2------0-2----2-2--2-------------|
-0----0--0---0--0-3-----0--0-0--0---0-0-3--3~-|






2:18



----------------------------------------------------------|
------8-----8------8-0-0----------------------------------|
----5-----5------5-------5---------7-----7-----7----------|
---------------------------7-----5-----5-----5---5--------|
-0-------------0-----------------------------------7--5~--|
------------------------------0---------------------------|



----------------------------------------------------------|
------8-----8------8-0-0----------------------------------|
----5-----5------5-------5---------7-----7-----7----------|
---------------------------7-----5-----5-----5---5--------|
-0-------------0-----------------------------------7--5~--|
------------------------------0---------------------------|



----------------------------------------------------------|
------8-----8------8-0-0----------------------------------|
----5----5-------5-------5---------7-----7-----7----------|
---------------------------7-----5-----5-----5---5--------|
-0-------------0-----------------------------------7--5~--|
------------------------------0---------------------------|



----------------------------------------------------------------|
------8-----8------8-0-0----------------------------------------|
----5----5-------5-------5--------------------------------------|
---------------------------7-----12------11-----9-----7-5-------|
-0-------------0--------------10----10-9----9-7---7-5------3--2-|
----------------------------------------------------------------|





2:51


-0---0-0-0-0---0-0-0-0-0-0-0--2---2-2-2-3---2-2-2-3--2---|
-1---1-1-1-1---1-1-1-1-1-1-1--3---3-3-3-3---3-3-3-3--3---|
-0---0-0-0-0---0-0-0-0-0-0-0--2---2-2-2-2---2-2-2-2--2---|
-2---2-2-2-2---2-2-2-2-2-2-2--0---0-0-0-0---0-0-0-0--0---|
-3---3-3-3-3---3-3-3-3-3-3-3-----------------------------|
---------------------------------------------------------|


-0---0-0-0-0---0-0-0-0-0-0-0--2---2-2-2-3---2-2-2-0--2---|
-1---1-1-1-1---1-1-1-1-1-1-1--3---3-3-3-3---3-3-3-3--3---|
-0---0-0-0-0---0-0-0-0-0-0-0--2---2-2-2-2---2-2-2-2--2---|
-2---2-2-2-2---2-2-2-2-2-2-2--0---0-0-0-0---0-0-0-0--0---|
-3---3-3-3-3---3-3-3-3-3-3-3-----------------------------|
---------------------------------------------------------|


-0---0-0-0-0---0-0-0-0-0-0-0--2---2-2-2-3---2-2-2-3--2----|
-1---1-1-1-1---1-1-1-1-1-1-1--3---3-3-3-3---3-3-3-3--3----|
-0---0-0-0-0---0-0-0-0-0-0-0--2---2-2-2-2---2-2-2-2--2----|
-2---2-2-2-2---2-2-2-2-2-2-2--0---0-0-0-0---0-0-0-0--0----|
-3---3-3-3-3---3-3-3-3-3-3-3----------------------------2-|
--------------------------------------------------------0-|








3:22


----------------------------------------------------|
------^---------------------------------------------|
-12-11-12--------------------------11--12-----------|
----------12/14----------------------------12--14---|
------------------------------------9-/10-----------|
---------------------------------0------------------|



3:30

-----------------------------------------------------------------|
-----------------------------------------------------------------|
/14--12----------------------------------------------------------|
--------14-12----14--12--12--/12~~---------------^---------------|
--------------14----------------------14-12-10-12-10-12-10-------|
-----------------------------------------------------------12----|
                   |   |   |



3:38

---------------------------------|
----------------)----------------|
------12-14---15-----------------|
---14------14-----14~------------|
-14------------------------------|
---------------------------------|
            *


3:44

-----------------------------------------------------------------------|
-----------------------------------------------------------------------|
14--11-----------------------------------------------------------------|
------12----14--12--12--12~---12---------------------------------------|
--------14-----------------14----14\12-10----12--12--14-12~---10-12----|
------------------------------------------12------------------------12-|
              |   |   |                        |   |   |   



3:55


-15-12----14-12----------------------------------------------------------|
-------15-------15-12----12----------------------------------------------|
----------------------14----12\11-14-11----11----------------------------|
----------------------------------------12----14-12-14-12----------------|
----------------------------------------------------------14\12-10/12-14-|
-------------------------------------------------------------------------|



4:01

---------------------------------------------------------------|
---------------------------------------------------------------|
---------------------------------------------------------------|
------------9--10--9-10-9~~------------------------------------|
-9--10--12--------------------12-10-9~~~~~---------^-----------|
-------------------------------------------------12-10-12------|



4:11

------------------------------------------------------------------------|
------------------------------------------------------------------------|
---____----------------------------------------------------12-11--14-12-|
--/    \----------12-----------------------------7/9-12-14--------------|
-9-10-9----9--10-----9--10--12------------7-9-10------------------------|
--------12--------------------------------------------------------------|



4:19

--------------------------------__-------------------|
-------------------------------/  \------------------|
---------------------12--14--12-14-12-11-------------|
-12--14-----------------------------------14--12--14-|
---------14~-----------------------------------------|
-----------------------------------------------------|



4:27

-------------------------|
-------------------------|
-------------------------|
--------7-9--------------|
-7-9-10------5-7~--------|
-------------------------|









|||||||||||||||||||||||||||||||||||||||||||||||||||||||||||
|||||||||||||||||||||||||||||||||||||||||||||||||||||||||||
|||||||||||||||||||||||||||||||||||||||||||||||||||||||||||
|||||||||||||||||||||||||||||||||||||||||||||||||||||||||||
|||||||||||||||||||||||||||||||||||||||||||||||||||||||||||
|||||||||||||||||||||||||||||||||||||||||||||||||||||||||||





TRACK 5


AGE OF REASON

FLAT TUNE STANDARD

Eb-Ab-Db-Gb-Bb-Eb





----------------------------------------------|
-----------------------------------___--------|
----------------------------------/   \-------|
------------9-7~\--------------9-7~-\5-0-7----|
-2---7-9-10--------2----7-9-10-----------5----|
-0-----------------0--X-----------------------|
                                          ~

--------------------------------------------|
--------------------------------------------|
-------------------------------------7-\----|
-------------9-7~\--------------9-7~--------|
-2----7-9-10--------2----7-9-10-------------|
-0--X---------------0--X--------------------|






0:22

----------------------------------------------------------|
----------------------------------------------------------|
--------7-----------------------------7-------------------|
--------5-----------------------------5-------------------|
----------------------------------------------------------|
-5-0--0-----0-5-0-7-0-3-0---0-5-0--0------0-5-0-7-0-3-0---|
         ~                             ~


------------------------------------------------------------|
------------------------------------------------------------|
---------7-----------------------------7-------------9-8-7--|
---------5-----------------------------5-------------9-8-7--|
-----------------------------------------------------7-6-5--|
0-5-0--0-----0-5-0-7-0-3-0---0-5-0--0------0-5-0-7-0--------|
          ~                             ~




0:37

----------------------------------------------------------|
----------------------------------------------------------|
---------7-----------------------------7------------------|
---------5-----------------------------5------------------|
----------------------------------------------------------|
-5-0--0------0-5-0-7-0-3-0---0-5-0--0------0-5-0-7-0-3-0--|
          ~                             ~

----------------------------------------------------------|
----------------------------------------------------------|
---------7-----------------------------7------------------|
---------5-----------------------------5------------------|
----------------------------------------------------------|
0-5-0--0-----0-5-0-7-0-3-0---0-5-0--0------0-5-0-7-0-3-0--|
          ~                             ~

----------------------------------------------------------|
----------------------------------------------------------|
---------7-----------------------------7------------------|
---------5-----------------------------5------------------|
----------------------------------------------------------|
0-5-0--0-----0-5-0-7-0-3-0---0-5-0--0------0-5-0-7-0-3-0--|
          ~                             ~

----------------------------------------------------------|
----------------------------------------------------------|
---------7-----------------------------7------------------|
---------5-----------------------------5------------------|
----------------------------------------------------------|
0-5-0--0-----0-5-0-7-0-3-0---0-5-0--0------0-5-0-7-0-3-0--|
          ~                             ~






1:05

----------------------------------------------|
----------------------------------------------|
----------------------------7-----------------|
---9--8--7--9---------------5-----------------|
---7--6--5--7--5------------------------------|
-0-------------3----5-0--0-----0-5-0-7-0-3-0--|
                             ~

----------------------------------------------|
----------------------------------------------|
----------------------------------------------|
---9--8--7--9-----------------\---------------|
---7--6--5--7--5-----2------s-\---------------|
-0-------------3-----0------------------------|
                             






1:21

----------------------------------------------------------|
----------------------------------------------------------|
--------7-----------------------------7-------------------|
--------5-----------------------------5-------------------|
----------------------------------------------------------|
-5-0--0-----0-5-0-7-0-3-0---0-5-0--0------0-5-0-7-0-3-0---|
         ~                             ~

------------------------------------------------------------|
------------------------------------------------------------|
---------7-----------------------------7-------------9-8-7--|
---------5-----------------------------5-------------9-8-7--|
-----------------------------------------------------7-6-5--|
0-5-0--0-----0-5-0-7-0-3-0---0-5-0--0------0-5-0-7-0--------|
          ~                             ~



1:36

----------------------------------------------------------|
----------------------------------------------------------|
---------7-----------------------------7------------------|
---------5-----------------------------5------------------|
----------------------------------------------------------|
-5-0--0------0-5-0-7-0-3-0---0-5-0--0------0-5-0-7-0-3-0--|
          ~                             ~

----------------------------------------------------------|
----------------------------------------------------------|
---------7-----------------------------7------------------|
---------5-----------------------------5------------------|
----------------------------------------------------------|
0-5-0--0-----0-5-0-7-0-3-0---0-5-0--0------0-5-0-7-0-3-0--|
          ~                             ~

----------------------------------------------------------|
----------------------------------------------------------|
---------7-----------------------------7------------------|
---------5-----------------------------5------------------|
----------------------------------------------------------|
-5-0--0------0-5-0-7-0-3-0---0-5-0--0------0-5-0-7-0-3-0--|
          ~                             ~

----------------------------------------------------------|
----------------------------------------------------------|
---------7-----------------------------7------------------|
---------5-----------------------------5------------------|
----------------------------------------------------------|
0-5-0--0-----0-5-0-7-0-3-0---0-5-0--0------0-5-0-7-0-3-0--|
          ~                             ~







2:05

----------------------------------------------|
----------------------------------------------|
----------------------------7-----------------|
---9--8--7--9---------------5-----------------|
---7--6--5--7--5------------------------------|
-0-------------3----5-0--0-----0-5-0-7-0-3-0--|
                             ~

----------------------------------------------|
----------------------------------------------|
----------------------------------------------|
---9--8--7--9-----------------\---------------|
---7--6--5--7--5-----2------s-\---------------|
-0-------------3-----0------------------------|
                             






2:21

-------------------------------------------------|
--------------------------------------___--------|
-------------------------------------/   \-------|
-------------9-7~--\--------------9-7~-\5-0-7----|
-2----7-9-10----------2----7-9-10-----------5----|
-0--X-----------------0--X-----------------------|
                                           ~

----------------------------------------------|
----------------------------------------------|
---------------------------------------7-\----|
-------------9-7~--\--------------9-7~--------|
-2----7-9-10----------2----7-9-10-------------|
-0--X-----------------0--X--------------------|



----------------------------|
----------------------8-\---|
-------------------7--------|
----------5--7--9-----------|
-3--5--7--------------------|
----------------------------|







2:45


--------------------------------------------------|
--------------------------------------------------|
--------------------------------------------------|
-------2--------1--------------2--------1--2-1~---|
----2-----2--3-----3-2~-----2-----2--3------------|
-0-----------------------0------------------------|
 *  *      *  *    *     *  *  *  *  *  *  

--------------------------------------------------|
--------------------------------------------------|
--------------------------------------------------|
-------2--------1--------------2--------1---------|
----2-----2--3-----3-2~-----2-----2--3------------|
-0-----------------------0-----------------3-2~---|
 *  *  *  *  *     *     *  *  *  *  *    


--------------------------------------------------|
--------------------------------------------------|
--------------------------------------------------|
-------2--------1--------------2--------1--2-1~---|
----2-----2--3-----3-2~-----2-----2--3------------|
-0-----------------------0------------------------|
 *  *  *   *  *    *     *  *  *  *  *  *  

--------------------------------------------------|
--------------------------------------------------|
--------------------------------------------------|
-------2--------1--------------2--------1---------|
----2-----2--3-----3-2~-----2-----2--3------------|
-0-----------------------0-----------------3-2~---|
 *  *  *  *  *     *     *  *  *  *  *    

--------------------------------------------------|
--------------------------------------------------|
--------------------------------------------------|
-------2--------1--------------2--------1--2-1~---|
----2-----2--3-----3-2~-----2-----2--3------------|
-0-----------------------0------------------------|
 *  *  *   *  *    *     *  *  *  *  *  *  

-------------------------------------------------------------|
-------------------------------------------------------------|
-------------------------------------------------------------|
-------2--------1---------5--4---9--8--7-6--5--4---9--8--7-5-|
----2-----2--3-----3-2~---3--2---7--6--5-4--3--2---7--6--5-3-|
-0-----------------------------------------------------------|
 *  *  *  *  *     *        





3:34

---------------------------------------|
---------------------------------------|
-------------4-------------------------|
----3-----3-----3-----3----------------|
-2-----2-----------2-----2--------3----|
----------------------------2--3-------|


---------------------------------------|
---------------------------------------|
-------------4-------------------------|
----3-----3-----3-----3----------------|
-2-----2-----------2-----2--------3----|
----------------------------2--3-------|


---------------------------------------|
---------------------------------------|
-------------4-------------------------|
----3-----3-----3-----3----------------|
-2-----2-----------2-----2--------3----|
----------------------------2--3-------|


---------------------------------------|
---------------------------------------|
-------------4-------------------------|
----3-----3-----3-----3----------------|
-2-----2-----------2-----2--------3----|
----------------------------2--3-------|







3:58


---------------------------------------------------------------|
---------------------------------------------------------------|
---------------------------------------------------------------|
-4-4---4-4---4-4---4-4---4-5-4---4-4---4-4---4-4---4-4---5-----|
-2-2---2-2---2-2---2-2-0-2-3-2-0-2-2---2-2---2-2---2-2-0-3-----|
---------------------------------------------------------------|
    |     |     |                   |     |     |         ~

---------------------------------------------------------------|
---------------------------------------------------------------|
---------------------------------------------------------------|
-4-4---4-4---4-4---4-4---4-5-4---4-4---4-4---4-4---4-------5---|
-2-2---2-2---2-2---2-2-0-2-3-2-0-2-2---2-2---2-2---2-4--5--3---|
-----------------------------------------------------2--3--3---|
    |     |     |                   |     |     |         




---------------------------------------------------------------|
---------------------------------------------------------------|
---------4-------------------------------4---------------------|
-4-4---4-4---4-4---4-4---4-5-4---4-4---4-4---4-4---4-4---5-----|
-2-2---2-----2-2---2-2-0-2-3-2-0-2-2---2-----2-2---2-2-0-3-----|
---------------------------------------------------------------|
    |     |     |                   |     |     |         ~

---------------------------------------------------------------|
---------------------------------------------------------------|
---------------------------------------------------------------|
-4-4---4-4---4-4---4-4---4-5-4---4-4---4-4---4-4---4-------5---|
-2-2---2-2---2-2---2-2-0-2-3-2-0-2-2---2-2---2-2---2-4--5--3---|
-----------------------------------------------------2--3--3---|
    |     |     |                   |     |     |         


---------------------------------------------------------------|
---------------------------------------------------------------|
---------4-------------------------------4---------------------|
-4-4---4-4---4-4---4-4---4-5-4---4-4---4-4---4-4---4-4---5-----|
-2-2---2-----2-2---2-2-0-2-3-2-0-2-2---2-----2-2---2-2-0-3-----|
---------------------------------------------------------------|
    |     |     |                   |     |     |         ~

---------------------------------------------------------------|
---------------------------------------------------------------|
---------------------------------------------------------------|
-4-4---4-4---4-4---4-4---4-5-4---4-4---4-4---4-4---4-------5---|
-2-2---2-2---2-2---2-2-0-2-3-2-0-2-2---2-2---2-2---2-4--5--3---|
-----------------------------------------------------2--3--3---|
    |     |     |                   |     |     |         






4:35


---------------------------------------|
---------------------------------------|
-------------4-------------------------|
----3-----3-----3-----3----------------|
-2-----2-----------2-----2--------3----|
----------------------------2--3-------|


---------------------------------------|
---------------------------------------|
-------------4-------------------------|
----3-----3-----3-----3----------------|
-2-----2-----------2-----2--------3----|
----------------------------2--3-------|







4:47

--------------------------------------------|
--------------------------------------------|
-----------------------------------7--------|
------------9-7~\--------------9-7----9~----|
-2---7-9-10--------2----7-9-10--------------|
-0-----------------0--X---------------------|
                                          

---------------------------------------------|
----------------------------5-5-8-8-8-8-7-7--|
----------------------------x-x-x-x-x-x-x-x--|
-------------9-7~---5\4-2~--2-2/5-5-5-5\4-4--|
-2----7-9-10---------------------------------|
-0--X----------------------------------------|
                                          

---------------------------------------------|
---------------------------------------------|
------------------------------------7--------|
-------------9-7~\--------------9-7----9~----|
-2----7-9-10--------2----7-9-10--------------|
-0--X---------------0--X---------------------|
                                 

-------------------------------------------------|
-------------------------------------------------|
-------------------------------------------------|
-------------9-7~--5\4-5~---5-5/7-7/9-9/12-12/14-|
-2----7-9-10-------------------------------------|
-0--X--------------------------------------------|
         






5:18


solo                                                __
                       ~~~~~         ^             /  \              ~~~
------------------)---)------12-14-15-14-14-12---12-14-12--12---)---)--|
---)---------12-15--15------------------------15---------15---15--15---|
-14--12----------------------------------------------------------------|
-------14~~~-----------------------------------------------------------|
-----------------------------------------------------------------------|
-----------------------------------------------------------------------|
                                     |



5:25

-12------^-----------------------------|
----15-12-15-12------------)-----------|
----------------14-12----14--14-12~~-\-|
----------------------14---------------|
---------------------------------------|
---------------------------------------|



5:28

------------------------------------------------------------|
------------------------------------------------------------|
-------^---------------------------------_____--------------|
-/14-12-14-12~~~~-----------------------/     \-------------|
------------------/14--13--12--10--12-10-12-10-9-10--12--10-|
------------------------------------------------------------|
                     
-----------------------------------------------------------|
-----------------------------------------------------------|
---__-----------__------------------------__---------------|
--/  \---------/  \------------^---------/  \--------------|
-9-10-9----10-9-10-9----10-9-10-9----10-9-10-9----9--------|
--------12-----------12-----------12-----------12---12~~---|



5:34

--------------------------------------------___-----|
-------------------------------^-----)~~~---) (-----|
-------------------------12--12-14-14-----14----12--|
-----------------12-13-14--14-----------------------|
-------9-10-12/14-----------------------------------|
-10-12----------------------------------------------|

     

5:37                                      __
           ___                     /\     /  \        ^
---)~~~~---) (-------12-14-15-14-121412-12-14-12----12-14-12----12--15--17-|
-15------15----13-15-----------------------------15----------15------------|
---------------------------------------------------------------------------|
---------------------------------------------------------------------------|
---------------------------------------------------------------------------|
---------------------------------------------------------------------------|
                                                                  |   |   |

   ~~~~~~__               ~~~__              ~~~__
   )    |  (         )   )  | (         )   )  | (       )(
-17-----17---15----17--17--17---15----17--17--17---15--20--\---|
---------------17-----------------17---------------------------|
---------------------------------------------------------------|
---------------------------------------------------------------|
---------------------------------------------------------------|
---------------------------------------------------------------|
                 |                  |



5:47
                                                          __
----12------12-------------------------------------------/  \----|
-15----15------15-12-15---^---12----------^---12-14-15-12-15-12--|
------------------------12-14----14-12--12-14--------------------|
-----------------------------------------------------------------|
-----------------------------------------------------------------|
-----------------------------------------------------------------|
         |


   ^       ^       ^        ^        ^        ^        ^        ^
-15-12---15-12---15-12----15-12----15-12----15-12----15-12----15-12----|
------15------15-------15-------15-------15-------15-------15-------15-|
-----------------------------------------------------------------------|
-----------------------------------------------------------------------|
-----------------------------------------------------------------------|
-----------------------------------------------------------------------|
        |       |        |        |        |        |        |        |
    __         __
   /  \       /  \           ^           ^           ^
-12-15-12---12-15-12----12-15-12----12-15-12----12-15-12----12----|
---------15----------15----------15----------15----------15----15-|
------------------------------------------------------------------|
------------------------------------------------------------------|
------------------------------------------------------------------|
------------------------------------------------------------------|
           |
                   __
---)~~-12---------/  \---------_------__-------------|
-15------15-12--12-15-12------/ \----/  \-----^------|
--------------15---------15-121412-14121412-14-12----|
-------------------------------------------------14--|
-----------------------------------------------------|
-----------------------------------------------------|


---------__---------------------------------------------------------------|
--------/  \--------------------------------------------------------------|
12\11-14121412---^--12------^--12-----------------------------------14----|
---------------12-14---14-12-14--14-12------^--------------^-----------12~|
---------------------------------------14-10-12----10----12-10-12/14------|
------------------------------------------------12----12------------------|
                                               



5:59

----)--------------------------------------------------------------|
-/13---------------------------------------------------------------|
-------9-8-7~~------------------_____------------------------------|
--------------------)----------/     \-----------------------------|
---------------/\/15-\-10-12-10-12-10-9-10-12-10-9----10/12-9------|
---------------------------------------------------12---------12---|
       * *               
                                                         ____
                                                         )   ~~~
-------------------------------------------------15-15-12---|-----|
-------------------------------------------------15-15-15--15-----|
--------------------------14\12-12~~--14\12-12~~------------------|
-------ph---------------------------------------------------------|
-10/12-9-----9-12-9-10/12-----------------------------------------|
----------12------------------------------------------------------|

                                      ______
-12----------------------_____--------)    (---------|
----15-12----ph---------/     \-----12---------------|
----------14-14-12----12/16\14\12~~----------9~~~-\--|
-------------------14--------------------------------|
-----------------------------------------------------|
-----------------------------------------------------|
                    *



6:14

---------------------------------------------------------|
----------------)(-------------)(------------------------|
------12---14-12-------------12-------------12-----------|
-/14----14---------14-12----------14-12-------14-12-14---|
-------------------------14-------------14---------------|
---------------------------------------------------------|
   |      |  |             |              |           |


                                               __
                                          )   /  \
-------------__-------__----------------15--15~~-12--|
------------/  \-----/  \---------12-15--------------|
-12-------14/16\14-12-14-12-12-14--------------------|
----14-12--------------------------------------------|
-----------------------------------------------------|
-----------------------------------------------------|

                         __
   ^           ^        /  \
-15-12-------15-12----12-15-12----12---^---12------------------------------|
-------15-12-------15----------15----12-15----15-12---12-----12---------12-|
----------------------------------------------------14--12-14--14-12-14----|
---------------------------------------------------------------------------|
---------------------------------------------------------------------------|
---------------------------------------------------------------------------|


-----------------------------------------|
-----------------------------------------|
----------12-----------------------------|
-12-13-14----14-12-----------------------|
-------------------14-13-12--------------|
---------------------------15-12~\-------|





6:23



----------------------------------------------|
----------------------------------------------|
----------------------------------------------|
-9--9---9-9-7-7-7-----9--9--9-9-9-5-5-5-------|
-7--7---7-7\5-5-5-----7--7--7-7-7\3-3-3-------|
------------------0-0-------------------0-0---|
                  * *                   * *

------------------------------------------------------|
---------------------------------------5-5---8-8-7-7--|
---------------------------------------X-X---X-X-X-X--|
-9--9---9-9-7-7-7-12-12--5---5-5--5----2-2---5-5-4-4--|
-7--7---7-7\5-5-5/10-10\-3---3-3--3-------------------|
-------------------------------------0----0-----------|
                  


----------------------------------------------------|
----------------------------------------------------|
----------------------------------------------------|
-9--9-9--9-9-7-7--7-7-9-----9--9--9-9-9-5-5-5-------|
-7--7-7--7-7\5-5--5-5-7-----7--7--7-7-7\3-3-3-------|
------------------------0-0-------------------0-0---|
                        * *                   * *



---------------------------------|
---------------------------------|
---------------------------------|
-9--9---9-9-7-7-7-12-12--5-------|
-7--7---7-7\5-5-5/10-10\-3-------|
---------------------------------|








|||||||||||||||||||||||||||||||||||||||||||||||||||||||||||
|||||||||||||||||||||||||||||||||||||||||||||||||||||||||||
|||||||||||||||||||||||||||||||||||||||||||||||||||||||||||
|||||||||||||||||||||||||||||||||||||||||||||||||||||||||||
|||||||||||||||||||||||||||||||||||||||||||||||||||||||||||
|||||||||||||||||||||||||||||||||||||||||||||||||||||||||||







TRACK 6



LIVE FOREVER

FLAT TUNING STANDARD

-Eb-Ab-Db-Gb-Bb-Eb




-----------------------------------------|
-----------------------------------------|
-----------------------------------------|
-6------------2---5---6---6-5-4----------|
-4--6-----2---0---3---4---4-3-2--7---6---|
----4--3~-0----------------------5---4~--|

--------------------------------------------|
--------------------------------------------|
---------------------------------------9--8-|
-6------------2---5---6---6-5-4--------9--8-|
-4--6-----2---0---3---4---4-3-2--7--6--7--6-|
----4--3~-0----------------------5-\4-------|



-----------------------------------------|
-----------------------------------------|
-----------------------------------------|
-6------------2---5---6---6-5-4----------|
-4--6-----2---0---3---4---4-3-2--7---6---|
----4--3~-0----------------------5---4~--|

--------------------------------------------|
--------------------------------------------|
---------------------------------------9--8-|
-6------------2---5---6---6-5-4--------9--8-|
-4--6-----2---0---3---4---4-3-2--7--6--7--6-|
----4--3~-0----------------------5-\4-------|



---------------|
---------------|
---------------|
-6-------4-----|
-4-------2-----|
---------------|






0:35

-------------------------------------------------------------------------|
-------------------------------------------------------------------------|
---------------------------------2---------------------------------------|
---------------------------------2--------------------------5--4--2------|
---------------------------------0--------------------------3--2--0----2-|
-2-2--0-1-2-2---0-1-2-2---0-1-2----0--2-2--0-1-2-2---0-1-2----------3~-0-|


-------------------------------------------------------------------------|
-------------------------------------------------------------------------|
---------------------------------2---------------------------------------|
---------------------------------2--------------------------5--4--2------|
---------------------------------0--------------------------3--2--0----2-|
-2-2--0-1-2-2---0-1-2-2---0-1-2----0--2-2--0-1-2-2---0-1-2----------3~-0-|



--------------------------------------------------------------------------|
--------------------------------------------------------------------------|
---------------------------------2------------------------------------2---|
---------------------------------2------------------------------------2---|
---------------------------------0------------------------------------0---|
-2-2--0-1-2-2---0-1-2-2---0-1-2----0--2-2--0-1-2-2---0-1-2-2---0-1-2----0-|


-------------------------------------------------------------------------|
-------------------------------------------------------------------------|
---------------------------------2---------------------------------------|
---------------------------------2--------------------------5--4--2------|
---------------------------------0--------------------------3--2--0----2-|
-2-2--0-1-2-2---0-1-2-2---0-1-2----0--2-2--0-1-2-2---0-1-2----------3~-0-|



--------------------------------------------------------------------------|
--------------------------------------------------------------------------|
---------------------------------2------------------------------------2---|
---------------------------------2------------------------------------2---|
---------------------------------0------------------------------------0---|
-2-2--0-1-2-2---0-1-2-2---0-1-2----0--2-2--0-1-2-2---0-1-2-2---0-1-2----0-|


---------------------------------------------------------------|
---------------------------------------------------------------|
---------------------------------2-----------------------------|
---------------------------------2-----------------------5-----|
---------------------------------0-----------------------3--4--|
-2-2--0-1-2-2---0-1-2-2---0-1-2----0--2-2--0-1-2-2---0-1----2--|







1:20

-----------------------------------------------------------------------|
-----------------------------------------------------------------------|
-----------------------------------------------------------------------|
-4---------7-4-----4---7-7-7-7-7-6---4---------7-4-----4---7-7-7-7-7-9-|
-2---4-5---5-2---0-2---5-5-5-5-5-4---2---4-5---5-2---0-2---5-5-5-5-5-7-|
-----2-3---------------------------------2-3---------------------------|

-----------------------------------------------------------------------|
-----------------------------------------------------------------------|
-----------------------------------------------------------------------|
-4---------7-4-----4---7-7-7-7-7-6---4---------7-4-----4---7-7-7-7-7-9-|
-2---4-5---5-2---0-2---5-5-5-5-5-4---2---4-5---5-2---0-2---5-5-5-5-5-7-|
-----2-3---------------------------------2-3---------------------------|






1:50

-------------------------------------------------------------------------|
-------------------------------------------------------------------------|
---------------------------------2---------------------------------------|
---------------------------------2--------------------------5--4--2------|
---------------------------------0--------------------------3--2--0----2-|
-2-2--0-1-2-2---0-1-2-2---0-1-2----0--2-2--0-1-2-2---0-1-2----------3~-0-|


-------------------------------------------------------------------------|
-------------------------------------------------------------------------|
---------------------------------2---------------------------------------|
---------------------------------2--------------------------5--4--2------|
---------------------------------0--------------------------3--2--0----2-|
-2-2--0-1-2-2---0-1-2-2---0-1-2----0--2-2--0-1-2-2---0-1-2----------3~-0-|



--------------------------------------------------------------------------|
--------------------------------------------------------------------------|
---------------------------------2------------------------------------2---|
---------------------------------2------------------------------------2---|
---------------------------------0------------------------------------0---|
-2-2--0-1-2-2---0-1-2-2---0-1-2----0--2-2--0-1-2-2---0-1-2-2---0-1-2----0-|


-------------------------------------------------------------------------|
-------------------------------------------------------------------------|
---------------------------------2---------------------------------------|
---------------------------------2--------------------------5--4--2------|
---------------------------------0--------------------------3--2--0----2-|
-2-2--0-1-2-2---0-1-2-2---0-1-2----0--2-2--0-1-2-2---0-1-2----------3~-0-|



--------------------------------------------------------------------------|
--------------------------------------------------------------------------|
---------------------------------2------------------------------------2---|
---------------------------------2------------------------------------2---|
---------------------------------0------------------------------------0---|
-2-2--0-1-2-2---0-1-2-2---0-1-2----0--2-2--0-1-2-2---0-1-2-2---0-1-2----0-|


---------------------------------------------------------------|
---------------------------------------------------------------|
---------------------------------2-----------------------------|
---------------------------------2-----------------------5-----|
---------------------------------0-----------------------3--4--|
-2-2--0-1-2-2---0-1-2-2---0-1-2----0--2-2--0-1-2-2---0-1----2--|








2:35


-----------------------------------------------------------------------|
-----------------------------------------------------------------------|
-----------------------------------------------------------------------|
-4---------7-4-----4---7-7-7-7-7-6---4---------7-4-----4---7-7-7-7-7-9-|
-2---4-5---5-2---0-2---5-5-5-5-5-4---2---4-5---5-2---0-2---5-5-5-5-5-7-|
-----2-3---------------------------------2-3---------------------------|

-----------------------------------------------------------------------|
-----------------------------------------------------------------------|
-----------------------------------------------------------------------|
-4---------7-4-----4---7-7-7-7-7-6---4---------7-4-----4---7-7-7-7-7-9-|
-2---4-5---5-2---0-2---5-5-5-5-5-4---2---4-5---5-2---0-2---5-5-5-5-5-7-|
-----2-3---------------------------------2-3---------------------------|



-------------------------|
-------------------------|
-------------------------|
-9-7--7-6--6-5--5--------|
-7-5--5-4--4-3--3---)----|
-------------------5-----|






3:10

SOLO

----__------------------------------------------------|
---/  \-----------------------------14----------------|
-14-16-14----14/13---------------14----14-16-14-------|
----------16-------16-16~~-14-16----------------16~~--|
------------------------------------------------------|
------------------------------------------------------|


3:14

-------------------------------------------------------|
-------------------------------------------------------|
-------^-----------------------------------------------|
~\14-16-14----14-----------------------^---------------|
-----------16----16-15-14--14\12-14--15-12-------------|
-------------------------------------------14-14~~~12--|
                                                     |


3:17

-------------------------------------------------------------|
---------------------)-14-17----14--------------)------------|
-------14----16-14-16-------16----17-16-14----16--16~-14~----|
-11/16----16-------------------------------16----------------|
-------------------------------------------------------------|
-------------------------------------------------------------|



3:21
   _______________
---)---|--|--|--|(------)()()-14-------------------------------|
-17---17-17-17-17--17-17---------17-14----14-------------------|
---------------------------------------16---14----16-14--------|
-----------------------------------------------16--------14~~~-|
---------------------------------------------------------------|
---------------------------------------------------------------|




3:25

-----------------------------------------------|
-----------------------------------------------|
-----------------------------------------------|
------16--16--16~~-------16--------------------|
-/18---------------18-18----18-16-18-18~-16~---|
-----------------------------------------------|
    |    |   |



3:28
   ________
---)---|--|()()--^-----------------------------------|
-20---20-20----20-16---16-----------------2step------|
--------------------18----18-16----18-16---)---------|
--------------------------------18-------16---16~~~--|
-----------------------------------------------------|
-----------------------------------------------------|
        |      



3:32

------------------------------------------------------|
------------------------------------------------^-----|
----------------------------------------18-16-18-16~~-|
-----16-16~\-----16-16~-\-----16-16~-18---------------|
-/18---------/18----------/18-------------------------|
------------------------------------------------------|


3:36

   _________________         
---)-----|----|----|~~~~------------------------------|
-20-----20---20---20------/21--\19--16----------------|
---------------------------------------/20--\18--16---|
------------------------------------------------------|
------------------------------------------------------|
------------------------------------------------------|
      |    |    |



3:41

-------------_______------------------------|
-------------)----|--17---)----------)~~~---|
-------14--16----16-----16---16-14-16-------|
-16~~---------------------------------------|
--------------------------------------------|
--------------------------------------------|





3:45

-------------------------------------|
-------------------------------------|
-------------------------------------|
--6---------9-6-6---4-6-9-9-9-9-9-8--|
--4---6-7---7\4-4---2/4-7-7-7-7-7-6--|
------4-5----------------------------|

-------------------------------------|
-------------------------------------|
-------------------------------------|
--6---------9-6-6---4-6-9-9-9-9-9-11-|
--4---6-7---7\4-4---2/4-7-7-7-7-7-9--|
------4-5----------------------------|


-------------------------------------|
-------------------------------------|
-------------------------------------|
--6---------9-6-6---4-6-9-9-9-9-9-8--|
--4---6-7---7\4-4---2/4-7-7-7-7-7-6--|
------4-5----------------------------|

-------------------------------------|
-------------------------------------|
-------------------------------------|
--6---------9-6-6---4-6-9-9-9-9-9-11-|
--4---6-7---7\4-4---2/4-7-7-7-7-7-9--|
------4-5----------------------------|





4:14

--------------------------------------------------------------------------|
--------------------------------------------------------------------------|
--------------------------------------------------------------------------|
--------------------------------------------------------------------------|
---------------------------------2------------------------------------2---|
-4-4---2-3-4-4---2-3-4-4---2-3-4---2--4-4---2-3-4-4---2-3-4-4---2-3-4---2-|


--------------------------------------------------------------------------|
--------------------------------------------------------------------------|
--------------------------------------------------------------------------|
--------------------------------------------------------------------------|
---------------------------------2------------------------------------2---|
-4-4---2-3-4-4---2-3-4-4---2-3-4---2--4-4---2-3-4-4---2-3-4-4---2-3-4---2-|



--------------------------------------------------------------------------|
--------------------------------------------------------------------------|
--------------------------------------------------------------------------|
--------------------------------------------------------------------------|
---------------------------------2------------------------------------2---|
-4-4---2-3-4-4---2-3-4-4---2-3-4---2--4-4---2-3-4-4---2-3-4-4---2-3-4---2-|



---------------------------------------------------------------|
---------------------------------------------------------------|
---------------------------------------------------------------|
---------------------------------------------------------------|
---------------------------------2-----------------------------|
-4-4---2-3-4-4---2-3-4-4---2-3-4---2--4-4---2-3-4-4---2-3-4-4--|






solo fills


4:22
    )~~~~
--14--------------------------------------|
--15-------15--15--15--15-----------------|
-----------16--16--16--16-----------------|
---------------------------18--18--18~~~--|
------------------------------------------|
------------------------------------------|
             |   |   |   |   |   |   



4:30

--)~~~~~~~~--------------------)~~~----------|
-4---------------------------12--------------|
-6---------------------------15-----p--------|
-------------------------------------s-------|
--------------------------------------\------|
---------------------------------------------|



4:37
        __
--)----/  \---------------------------------|
-4--7-4----\--------------------_-----------|
-6------6-4-6-6-4--------------/ \---4------|
------------------6~~~~~~~----4-5-6--4\-----|
--------------------------------------------|
--------------------------------------------|









|||||||||||||||||||||||||||||||||||||||||||||||||||||||||||
|||||||||||||||||||||||||||||||||||||||||||||||||||||||||||
|||||||||||||||||||||||||||||||||||||||||||||||||||||||||||
|||||||||||||||||||||||||||||||||||||||||||||||||||||||||||
|||||||||||||||||||||||||||||||||||||||||||||||||||||||||||
|||||||||||||||||||||||||||||||||||||||||||||||||||||||||||






TRACK 7


DAMAGED SOUL

Eb-Ab-Db-Gb-Bb-Eb




--------------------------------------|
--------------------------------------|
--------------------------------------|
---------5~---^----------_------------|
-----5/7-----7-5---5~---/ \-----------|
-0---------------7-----7-5-0-3--3--3--|



--------------------------------)-------------|
------------------------------10--8-10--------|
---------------------------------------9~-----|
---------5~---^-----------5-------------------|
-----5/7-----7-5---5~-------------------------|
-0---------------7------7---------------------|
                        *


--------------------------------------|
--------------------------------------|
--------------------------------------|
---------5~---^----------_------------|
-----5/7-----7-5---5~---/ \-----------|
-0---------------7-----7-5-0-3--3--3--|



--------------------------------)-------------|
------------------------------10--8~----------|
----------------------------------------------|
---------5~---^-----------5-------------------|
-----5/7-----7-5---5~-------------------------|
-0---------------7------7---------------------|
                        *



0:35

NECK PU TO EMULATE TONE

---------------------------------------------------------------|
---------------------------------------------------------------|
--------4-------------------------4----------------------------|
--------5\------------------------5\-------5----9--7----12-----|
-----------------5----7--------------------3----7--5----10-----|
-0---0--------0--3----5----0---0--------0----------------------|


---------------------------------------------------------------|
---------------------------------------------------------------|
--------4-------------------------4----------------------------|
--------5\------------------------5\-------5----9--7----7------|
-----------------5----7--------------------3----7--5----5------|
-0---0--------0--3----5----0---0--------0----------------------|


---------------------------------------------------------------|
---------------------------------------------------------------|
--------4-------------------------4----------------------------|
--------5\------------------------5\-------5----9--7----12-----|
-----------------5----7--------------------3----7--5----10-----|
-0---0--------0--3----5----0---0--------0----------------------|


---------------------------------------------------------------|
---------------------------------------------------------------|
--------4-------------------------4----------------------------|
--------5\------------------------5\-------5----9--7----7------|
-----------------5----7--------------------3----7--5----5------|
-0---0--------0--3----5----0---0--------0----------------------|


---------------------------------------------------------------|
---------------------------------------------------------------|
--------4-------------------------4----------------------------|
--------5\------------------------5\-------5----9--7----12-----|
-----------------5----7--------------------3----7--5----10-----|
-0---0--------0--3----5----0---0--------0----------------------|






1:28

--------------------------------------------------------------------|
--------------------------------------------------------------------|
--------------------------------------------------------------------|
------------------------------------------------------/9-7~---------|
-----/7-5~---/10-7~------------------/7-5~---/10-7~----------10-----|
-0---------------------/7-5~--3--0----------------------------------|


--------------------------------------------------------------------|
--------------------------------------------------------------------|
--------------------------------------------------------------------|
------------------------------------------------------/9-7~---------|
-----/7-5~---/10-7~------------------/7-5~---/10-7~----------10-----|
-0---------------------/7-5~--3--0----------------------------------|





1:50

---------------------------------------------------------------|
---------------------------------------------------------------|
--------4-------------------------4----------------------------|
--------5\------------------------5\-------5----9--7----7------|
-----------------5----7--------------------3----7--5----5------|
-0---0--------0--3----5----0---0--------0----------------------|


---------------------------------------------------------------|
---------------------------------------------------------------|
--------4-------------------------4----------------------------|
--------5\------------------------5\-------5----9--7----12-----|
-----------------5----7--------------------3----7--5----10-----|
-0---0--------0--3----5----0---0--------0----------------------|


---------------------------------------------------------------|
---------------------------------------------------------------|
--------4-------------------------4----------------------------|
--------5\------------------------5\-------5----9--7----12-----|
-----------------5----7--------------------3----7--5----10-----|
-0---0--------0--3----5----0---0--------0----------------------|


---------------------------------------------------------------|
---------------------------------------------------------------|
--------4-------------------------4----------------------------|
--------5\------------------------5\-------5----9--7----12-----|
-----------------5----7--------------------3----7--5----10-----|
-0---0--------0--3----5----0---0--------0----------------------|






2:45



--------------------------------------------------------------------|
--------------------------------------------------------------------|
--------------------------------------------------------------------|
------------------------------------------------------/9-7~---------|
-----/7-5~---/10-7~------------------/7-5~---/10-7~----------10-----|
-0---------------------/7-5~--3--0----------------------------------|


--------------------------------------------------------------------|
--------------------------------------------------------------------|
--------------------------------------------------------------------|
------------------------------------------------------/9-7~---------|
-----/7-5~---/10-7~------------------/7-5~---/10-7~----------10-----|
-0---------------------/7-5~--3--0----------------------------------|





3:05


-------------------------------------------------------|
-------------------------------------------------------|
-------5---5-------5-------------5---5-------5---------|
-----7---5---7-------7--^------7---5---7-------7--^----|
-0---------------------5-0-0---------------------5-0---|
-------------------------------------------------------|


-------------------------------------------------------|
-------------------------------------------------------|
-------5---5-------5-------------5---5-------5---------|
-----7---5---7-------7--^------7---5---7-------7--^----|
-0---------------------5-0-0---------------------5-0---|
-------------------------------------------------------|


-------------------------------------------------------|
-------------------------------------------------------|
-------5---5-------5-------------5---5-------5---------|
-----7---5---7-------7--^------7---5---7-------7--^----|
-0---------------------5-0-0---------------------5-0---|
-------------------------------------------------------|


-------------------------------------------------|
-------------------------------------------------|
-------5---5-------5-------------5---5-----------|
-----7---5---7-------7--^------7---5----7--9--9--|
-0---------------------5-0-0------------5--7--7--|
-------------------------------------------------|







3:27


--------------------------------------|
--------------------------------------|
--------------------------------------|
---------5~---^----------_------------|
-----5/7-----7-5---5~---/ \-----------|
-0---------------7-----7-5-0-3--3--3--|



--------------------------------)-------------|
------------------------------10--8-10--------|
---------------------------------------9~-----|
---------5~---^-----------5-------------------|
-----5/7-----7-5---5~-------------------------|
-0---------------7------7---------------------|
                        *

--------------------------------------|
--------------------------------------|
--------------------------------------|
---------5~---^----------_------------|
-----5/7-----7-5---5~---/ \-----------|
-0---------------7-----7-5-0-3--3--3--|



--------------------------------)-------------|
------------------------------10--8-10--------|
---------------------------------------9~-----|
---------5~---^-----------5-------------------|
-----5/7-----7-5---5~-------------------------|
-0---------------7------7---------------------|
                        *





3:48

SOLO


   ~~~~~~~~___                    _____
---)-------|-(-------------------/     \---------------|
-15-------15---12----12--------10-11-10----10-{12}-----|
------------------15----12~-------------12-----12~~\---|
-------------------------------------------------------|
-------------------------------------------------------|
-------------------------------------------------------|
                            |



------------------------------------------------------------|
------------------------------------------------------------|
---------------------__--------------------------__---------|
-/14-12-14-12~~-----/  \-------------------12---/  \--------|
-----------------/12-14-12~~----10--9--10------9-10\7~~~~~\-|
------------------------------------------------------------|
                                  |  |   |



4:02



--------------12------)-12--^-----)-12--^-----)-12--^-----)-12--^-----)--|
-----------12----12-15----15-12-15----15-12-15----15-12-15----15-12-15---|
-12-12-------------------------------------------------------------------|
/12-12\------------------------------------------------------------------|
-------------------------------------------------------------------------|
-------------------------------------------------------------------------|

                          __                        ___~~~
                ^        /  \                       )
-12---^-------15-12----12-15-12----12---^---12-15-17-------|
----15-12-15--------15----------15----12-15----------------|
-----------------------------------------------------------|
-----------------------------------------------------------|
-----------------------------------------------------------|
-----------------------------------------------------------|

____                                           ~~~~~~
 | (           )   __      )   __         )   )
-17---15-----17---|-(----17---|-(----15-17--17--------|
---------17------17---15-----17---15------------------|
------------------------------------------------------|
------------------------------------------------------|
------------------------------------------------------|
------------------------------------------------------|


_____                             __               __
  | (                            /  \             /  \
-17--------15------14------15--12-14-12-----15--12-14-12-----|
-------17------17------15---------------15---------------15--|
-------------------------------------------------------------|
-------------------------------------------------------------|
-------------------------------------------------------------|
-------------------------------------------------------------|
             |   |   |   |   |            |    |           |    



        __               __
       /  \             /  \                                   ~~~~~~
-15--12-14-12-----15--12-14-12----12---------------------------)-----^---|
--------------15---------------15-------------12-13-15/17-12-15-------12-|
----------------------------------------12-14----------------------------|
--------------------------------------14---------------------------------|
-------------------------------------------------------------------------|
-------------------------------------------------------------------------|



                   __          __
   )            )  |(       )  |(               
-15---15--12--15--15--12--15--15--12----)--__-------)-----------|
--------------------------------------15---| (----15----^-------|
------------------------------------------14---12-----15-12~~~--|
----------------------------------------------------------------|
----------------------------------------------------------------|
----------------------------------------------------------------|



-------------------------------------------------------------------|
-------__---------------------------------------------------__-----|
------/  \------------^-------------12-------------12------/  \----|
/14-12-14-12~~------12-14-12~~--/14----14-12~~-/14----14-12-14-12~~|
-----------------/14-----------------------------------------------|
-------------------------------------------------------------------|


----------------------------|
----------------------------|
----------------------------|
-----12-14------------------|
-/14-------12~~~~\----------|
----------------------------|






4:32


----------------------------------------------------------|
----------------------------------------------------------|
--------4--------------------------4----------------------|
--------5\-------------------------5\---------------------|
---------------5--7--8--7----------------5--7--8--7-------|
-0---[0]-------3--5--6--5---0---0--------3--5--6--5-------|
                         ~                         

------------------------------------------------------------|
------------------------------------------------------------|
--------4----------------------------4----------------------|
--------5\---------------------------5\---------------------|
---------------5--7--8--7--5---------------5--7--8--7-------|
-0---0---------3--5--6--5--3--0---0--------3--5--6--5-------|
                                                     

------------------------------------------------------------|
------------------------------------------------------------|
--------4---------------------------4-----------------------|
--------5\--------------------------5\-----------------5----|
---------------5--7--8--7--5---------------5--7--8--7--5----|
-0---0---------3--5--6--5--3--0---0--------3--5--6--5--3----|


------------------------------------------------------------|
------------------------------------------------------------|
--------4---------------------------4-----------------------|
--------5\--------------------------5\------------------5---|
---------------5--7--8--7--5----------------5--7--8--7--5---|
-0---0------0--3--5--6--5--3--0---0------0--3--5--6--5--3---|


------------------------------------------------------------|
------------------------------------------------------------|
--------4---------------------------4-----------------------|
--------5\--------------------------5\----------------------|
---------------5--7--8--7--5----------------5--7--8--7--5---|
-0---0------0--3--5--6--5--3--0---0------0--3--5--6--5--3---|




5:25

SOLO


---)---------------------------------------|
-12---------------------) (^-----^---------|
-12-------------------14----12-14-12-------|
-----14--14--14~~--------------------14~~--|
-------------------------------------------|
-------------------------------------------|
       |   |



---)------------------------------------------------------------------------|
-12------------------------------------------------------------PH-----------|
-12------------^-----------------------------------------------12-----------|
-----14-14-14~~-12---12-12~~\------12~----------------^---------------------|
-------------------14-----------/14----12\10-12-12--12-10-12-10---10-10\7-7~|
----------------------------------------------------------------------------|
       |  |                                    |  |         |  |



               ~~~~~~~~~    )
---)---15------)----------18--------15-12-14----12----------12------------|
-15-------15-15------------------------------15----15-12-12----12-12------|
------------------------------------------------------------------12------|
--------------------------------------------------------------------------|
--------------------------------------------------------------------------|
--------------------------------------------------------------------------|
                              |




---)-^-----------------------------------------__--------------------|
-15---12--------------------------------------/  \-------------------|
---------14-1212~------------------------14~12-14-12-12--------------|
------------------14-12----14-12~~\----X---------------14-12--14-12~~|
------------------------14-----------/X---------------------14-------|
---------------------------------------------------------------------|


-------------------------------------------------------|
-------------------------------------------------------|
----__-------------__________----------------)---------|
---/  \-----)-----/          \------------5------------|
-14-12-10-12----12-14-12-10\9-10~~\----/7--------------|
-------------------------------------------------------|





6:10

--------------------------------------|
--------------------------------------|
--------------------------------------|
----------5--5---^---------_----------|
------5/7-------7-5---5---/ \---------|
-0--0---------------7----7-5-0-3--3---|


---------------------------------)-------|
-------------------------------10--8-----|
-------------------------------------9~~-|
----------5--5---^-----------------------|
------5/7-------7-5---5------------------|
-0--0---------------7----7-0-------------|



--------------------------------------|
--------------------------------------|
--------------------------------------|
----------5--5---^---------_----------|
------5/7-------7-5---5---/ \---------|
-0--0---------------7----7-5-0-3--3---|


---------------------------------)-------|
-------------------------------10--8-----|
-------------------------------------9~~-|
----------5--5---^-----------------------|
------5/7-------7-5---5------------------|
-0--0---------------7----7-0-------------|


--------------------------------------|
--------------------------------------|
--------------------------------------|
------- --5--5---^---------_----------|
------5-7-------7-5---5---/ \--5--5---|
-0--0---------------7----7-5-0-3--3---|


-----------------------------------------|
-----------------------------------------|
-------------------------------)---------|
----------5--5---^------------7--5-------|
------5-7-------7-5---5----5-------7-----|
-0--0---------------7----7---------------|


---------------------------------------|
---------------------------------------|
---------------------------------------|
----------5--5---^----------_----------|
------5-7-------7-5----5---/ \--5--5---|
-0--0----------------7----7-5-0-3--3---|


----------------------------------------|
----------------------------------------|
-------------------------------)--------|
----------5--5---^------------7--5------|
------5-7-------7-5---5----5--------5---|
-0--0---------------7----7--------------|





6:35

SOLO


--____________~~~---____------------__--------------------------------------|
--)--|---|---|------/    \----------/  \------------------------------------|
14--14--14--14----12-14-12\11-12--11-12-11---11-----------------12-12----^--|
------------------------------------------14---12---14-12~~~~12-------14~~12|
-------------------------------------------------14-------------------------|
----------------------------------------------------------------------------|
      |   |                     |                               




-15-12----12-14----12--------------------------------------------------|
-------14-------15----14-15-12-14----12--------------------------------|
----------------------------------15----15-14-12----14-12--------------|
-------------------------------------------------14-------14-12-13-14--|
-----------------------------------------------------------------------|
-----------------------------------------------------------------------|



--------------------------------------------------------------------|
--------------------------------------------------------------------|
-12-------------------------------------------------14-14-----------|
----14-12----14-12----12----------------------12-14-------14-12~----|
----------14-------14----14-13-12----12-13-14--------------------10-|
----------------------------------15--------------------------------|




---------------------------------------------------------------------------|
---)-12-15----12---------^-------------------------------------------------|
-14--------15----15-14-12-14----14-12~---14-12~---14-12~14-14-12~---12~~~--|
-----------------------------14-------14-------14----------------14--------|
---------------------------------------------------------------------------|
---------------------------------------------------------------------------|



            ______
            )   | (            ~~~~
-------12-15---15---12----12---)-----|
-----------------------15----15------|
-12-14-------------------------------|
-------------------------------------|
-------------------------------------|
-------------------------------------|


   __                   __          __         __
  /  \        ^        /  \        /  \       /  \
12-15-12----15-12----12-15-12----12-15-12---12-15-12-----------|
---------15-------15----------15----------15---------15-12-----|
---------------------------------------------------------------|
---------------------------------------------------------------|
---------------------------------------------------------------|
---------------------------------------------------------------|

            
   ^          ^                          __
-15-12---12-15-12---------------12------/  \-----|
-------15---------15-12-15-12-15---15-12-14-15---|
-------------------------------------------------|
-------------------------------------------------|
-------------------------------------------------|
-------------------------------------------------|


                
---^---------------------------------------________--------------------|
-15-12----12-15-12-15-12----14-12-14-12---/        \-------------------|
-------15----------------15-------------12\11-12-14-12---^-----^-------|
-------------------------------------------------------14-12-14-12-----|
-------------------------------------------------------------------14--|
-----------------------------------------------------------------------|



                                        )             ~~~~~
-------------------------------18-15-/24--{0}-15-12---)-------|
-------------------__-------14----------------------15--------|
----------__------/  \---16-----------------------------------|
---^-----/  \---12-12-14--------------------------------------|
-12-14-12-13-14-----------------------------------------------|
--------------------------------------------------------------|



---------------------------------|
-15-12----12---------------------|
-------15----15-14-12---14-12~~--|
----------------------14---------|
---------------------------------|
---------------------------------|




-------------------------------------------------------------------|
-------------------------------------------------------------------|
----12----------------------------------______________-----------X-|
/14----14-12----14-12----12------------/              \----------X-|
-------------14-------14----14-12-13-10-12-13-12-10-12-10-12-10/---|
-------------------------------------------------------------------|



                                                      ~~~~             ~~~
--------------------------------____------------------)---12--------)--)--|
--____________________-----__--/    \----/\---12-12-15------15-12-15-15---|
-/                    \---/  \79797979/141214-----------------------------|
575757575757575757575757/979797-------------------------------------------|
--------------------------------------------------------------------------|
--------------------------------------------------------------------------|
                                                |  |

    __                __        __        __        __
   /  \              /  \      /  \      /  \      /  \
-12-15-12----12----12-15-12--12-15-12--12-15-12--12-15-12----|
----------15----15---------15--------15--------15--------15--|
-------------------------------------------------------------|
-------------------------------------------------------------|
-------------------------------------------------------------|
-------------------------------------------------------------|
                  |
    __        __        __
   /  \      /  \      /  \                  __           _____
-12-15-12--12-15-12--12-15-12--12-------12--/  \--12-----/     \---|
---------15--------15--------15---14-15---15-14-15--15-12-14-15-12-|
-------------------------------------------------------------------|
-------------------------------------------------------------------|
-------------------------------------------------------------------|
-------------------------------------------------------------------|

          _____              _____              _____
--^------/     \-----^------/     \-----^------/     \------------------|
15-12--12-14-15-12-15-12--12-14-15-12-15-12--12-14-15-12-15-12--12-15-12|
-----15-----------------15-----------------15-----------------15--------|
------------------------------------------------------------------------|
------------------------------------------------------------------------|
------------------------------------------------------------------------|

   ~~~~~~~~~~~~~_____
---)------------|----(--)----)---__-----------|
-15------------15----------15---|--(----------|
-------------------------------14----12~~~~~~-|
----------------------------------------------|
----------------------------------------------|
----------------------------------------------|




------------------------------------------------------------------------|
------------------------------------------------------------------------|
---------------)()(--------------------)()(-----------------------------|
-14-12-14-14-12-----\-------12----14-12---------12----------------------|
------------------------/14----14------------14----14-13-12-10-12-12-10-|
------------------------------------------------------------------------|




7:35



--------------------------------------|
--------------------------------------|
--------------------------------------|
----------5--5---^---------_----------|
------5-7-------7-5---5---/ \--5--5---|
-0--0---------------7----7-5-0-3--3---|


-----------------------------------------|
-----------------------------------------|
-------------------------------)---------|
----------5--5---^------------7--5-------|
------5-7-------7-5---5----5-------7-----|
-0--0---------------7----7---------------|


--------------------------------------|
--------------------------------------|
--------------------------------------|
----------5--5---^---------_----------|
------5-7-------7-5---5---/ \--5--5---|
-0--0---------------7----7-5-0-3--3---|


----------------------------------------|
----------------------------------------|
----------------------------------------|
----------5--5---^------------)---------|
------5-7-------7-5---5----5-7--5---7---|
-0--0---------------7----7--------7-----|








|||||||||||||||||||||||||||||||||||||||||||||||||||||||||||
|||||||||||||||||||||||||||||||||||||||||||||||||||||||||||
|||||||||||||||||||||||||||||||||||||||||||||||||||||||||||
|||||||||||||||||||||||||||||||||||||||||||||||||||||||||||
|||||||||||||||||||||||||||||||||||||||||||||||||||||||||||
|||||||||||||||||||||||||||||||||||||||||||||||||||||||||||





TRACK 8


DEAR FATHER

FLAT STANDARD TUNING

Eb-Ab-Db-Gb-Bb-Eb





---------------------------------------------------------------|
---------------------------------------------------------------|
---------------------------------------------------------------|
------------3-----------------------------3--------------------|
------------1-------------4-5-------------1------------4-3-----|
-0--0-0-3-0-----0-5-0-3-0-2-3--0--0-0-3-0----0-5-0-3-0-2-1-----|
 *  * * * *  ~  * * * * *      *  * * * *  ~  * * * * *
                               

---------------------------------------------------------------|
---------------------------------------------------------------|
---------------------------------------------------------------|
------------3-----------------------------3--------------------|
------------1-------------4-5-------------1-------------4-3----|
-0--0-0-3-0-----0-5-0-3-0-2-3--0--0-0-3-0-----0-5-0-3-0-2-1----|
 *  * * * *  ~  * * * * *      *  * * * *  ~  * * * * *





0:15

----------------------------------------------------------|
----------------------------------------------------------|
----------------------------------------------------------|
----------------------------------^-------^---------------|
---------------------------------5-------4-------3---4-5--|
-0--0--3--5--6~--0--3--5--0--0-0-3-0-0-0-2-0-0-0-1-0-2-3--|
                          *  * *     * *     * *   *

----------------------------------------------------------|
----------------------------------------------------------|
----------------------------------------------------------|
----------------------------------^-------^---------------|
---------------------------------5-------4-------3---4-5--|
-0--0--3--5--6~--0--3--5--0--0-0-3-0-0-0-2-0-0-0-1-0-2-3--|
                          *  * *     * *     * *   *

----------------------------------------------------------|
----------------------------------------------------------|
----------------------------------------------------------|
----------------------------------^-------^---------------|
---------------------------------5-------4-------3---4-5--|
-0--0--3--5--6~--0--3--5--0--0-0-3-0-0-0-2-0-0-0-1-0-2-3--|
                          *  * *     * *     * *   *

----------------------------------------------------------|
----------------------------------------------------------|
----------------------------------------------------------|
----------------------------------^-------^---------------|
---------------------------------5-------4-------3---4-5--|
-0--0--3--5--6~--0--3--5--0--0-0-3-0-0-0-2-0-0-0-1-0-2-3--|
                          *  * *     * *     * *   *






0:42


-------0-----------------0-----------------0----------------0----------|
-----------0-----------0-----0----------------0-----------0-----0------|
-----5-------5-------5---------5---------5------5-------2---------2----|
---7-----------7---6-------------6-----7----------7---3-------------3--|
-0-----------------------------------0---------------------------------|
-----------------------------------------------------------------------|


-------0-----------------0-----------------0----------------0----------|
-----------0-----------0-----0----------------0-----------0-----0------|
-----5-------5-------7---------7---------5------5-------2---------2----|
---7-----------7---6-------------6-----7----------7---3-------------3--|
-0-----------------------------------0---------------------------------|
-----------------------------------------------------------------------|






1:11

----------------------------------------------------------------|
----------------------------------------------------------------|
----------------------------------------------------------------|
--------^-------^-----------------------^-------^---------------|
-------5-------4-------3---4-5---------5-------4-------3---4-5--|
0--0-0-3-0-0-0-2-0-0-0-1-0-2-3--0--0-0-3-0-0-0-2-0-0-0-1-0-2-3--|
*  * *     * *     * *   *      *  * *     * *     * *   *      

----------------------------------------------------------------|
----------------------------------------------------------------|
----------------------------------------------------------------|
--------^-------^-----------------------^-------^---------------|
-------5-------4-------3---4-5---------5-------4-------3---4-5--|
0--0-0-3-0-0-0-2-0-0-0-1-0-2-3--0--0-0-3-0-0-0-2-0-0-0-1-0-2-3--|
*  * *     * *     * *   *      *  * *     * *     * *   *   





1:25

----------------------------------------------------------|
----------------------------------------------------------|
----------------------------------------------------------|
----------------------------------^-------^---------------|
---------------------------------5-------4-------3---4-5--|
-0--0--3--5--6~--0--3--5--0--0-0-3-0-0-0-2-0-0-0-1-0-2-3--|
                          *  * *     * *     * *   *

----------------------------------------------------------|
----------------------------------------------------------|
----------------------------------------------------------|
----------------------------------^-------^---------------|
---------------------------------5-------4-------3---4-5--|
-0--0--3--5--6~--0--3--5--0--0-0-3-0-0-0-2-0-0-0-1-0-2-3--|
                          *  * *     * *     * *   *

----------------------------------------------------------|
----------------------------------------------------------|
----------------------------------------------------------|
----------------------------------^-------^---------------|
---------------------------------5-------4-------3---4-5--|
-0--0--3--5--6~--0--3--5--0--0-0-3-0-0-0-2-0-0-0-1-0-2-3--|
                          *  * *     * *     * *   *

----------------------------------------------------------|
----------------------------------------------------------|
----------------------------------------------------------|
----------------------------------^-------^---------------|
---------------------------------5-------4-------3---4-5--|
-0--0--3--5--6~--0--3--5--0--0-0-3-0-0-0-2-0-0-0-1-0-2-3--|
                          *  * *     * *     * *   *




1:52

-------0-----------------0-----------------0----------------0----------|
-----------0-----------0-----0----------------0-----------0-----0------|
-----5-------5-------5---------5---------5------5-------2---------2----|
---7-----------7---6-------------6-----7----------7---3-------------3--|
-0-----------------------------------0---------------------------------|
-----------------------------------------------------------------------|


-------0-----------------0-----------------0----------------0----------|
-----------0-----------0-----0----------------0-----------0-----0------|
-----5-------5-------7---------7---------5------5-------2---------2----|
---7-----------7---6-------------6-----7----------7---3-------------3--|
-0-----------------------------------0---------------------------------|
-----------------------------------------------------------------------|






2:20

----------------------------------------------------------------|
----------------------------------------------------------------|
----------------------------------------------------------------|
--------^-------^-----------------------^-------^---------------|
-------5-------4-------3---4-5---------5-------4-------3---4-5--|
0--0-0-3-0-0-0-2-0-0-0-1-0-2-3--0--0-0-3-0-0-0-2-0-0-0-1-0-2-3--|
*  * *     * *     * *   *      *  * *     * *     * *   *      

----------------------------------------------------------------|
----------------------------------------------------------------|
----------------------------------------------------------------|
--------^-------^-----------------------^-------^---------------|
-------5-------4-------3---4-5---------5-------4-------3---4-5--|
0--0-0-3-0-0-0-2-0-0-0-1-0-2-3--0--0-0-3-0-0-0-2-0-0-0-1-0-2-3--|
*  * *     * *     * *   *      *  * *     * *     * *   *   







2:34


---------------------------------------------------------------------------|
---------------------------------------------------------------------------|
---------------------------------------------------------------------------|
------9---3-----------9---3---4-5-4---------9---3-----------9---3---4-5-4--|
-----/7---1----------/7---1---2-3-2--------/7---1----------/7---1---2-3-2--|
-0---------------0---------------------0--------------0--------------------|
        \               \                     \               \          


--------------------------------------|
--------------------------------------|
--------------------------------------|
-5-----5--9--7---7------12-11--9--7---|
-3-----3--7--5---5------10--9--7--5---|
--------------------0-0---------------|
              ~   ~ * *






2:55

            )~                        )~
----------12------------------------12----------------|
----------15------------------------15----------------|
------------------------------------------------------|
-----------------------7-------------------------5----|
-----------------------5-------------------------3----|
-0-0-0-0--------0--0-0------0-0-0-0-------0--0-0------|
 * * * *        *  * *  ~   * * * *       *  * *  ~

            )~                        )~
----------12------------------------12----------------|
----------15------------------------15----------------|
------------------------------------------------------|
-----------------------7-------------------------3----|
-----------------------5-------------------------1----|
-0-0-0-0--------0--0-0------0-0-0-0-------0--0-0------|
 * * * *        *  * *  ~   * * * *       *  * *   





3:09

------------------------------------------------------|
------------------------------------------------------|
------------------------------------------------------|
-----------9-----------7--------------9-----------5---|
-----------7-----------5--------------7-----------3---|
-0-0-0-0--------0--0-0------0-0-0-0-------0--0-0------|
 * * * *    ~   *  * *  ~   * * * *    ~  *  * *   ~


------------------------------------------------------|
------------------------------------------------------|
------------------------------------------------------|
-----------9-----------7--------------9-----------3---|
-----------7-----------5--------------7-----------1---|
-0-0-0-0--------0--0-0------0-0-0-0-------0--0-0------|
 * * * *    ~   *  * *  ~   * * * *    ~  *  * *     

------------------------------------------------------|
------------------------------------------------------|
------------------------------------------------------|
-----------9-----------7--------------9-----------5---|
-----------7-----------5--------------7-----------3---|
-0-0-0-0--------0--0-0------0-0-0-0-------0--0-0------|
 * * * *    ~   *  * *  ~   * * * *    ~  *  * *   ~


--------------------------------------------------------|
--------------------------------------------------------|
--------------------------------------------------------|
-----------9-----------7--------------9-----------3-----|
-----------7-----------5--------------7-----------1--0-0|
-0-0-0-0--------0--0-0------0-0-0-0-------0--0-0--------|
 * * * *    ~   *  * *  ~   * * * *    ~  *  * *     * *


------------------------------------------|
------------------------------------------|
------------------------------------------|
-5---5---5---5--9-7--7------12-11--9--7---|
-3---3---3---3--7-5--5------10--9--7--5---|
------------------------0-0---------------|
  ~   ~   ~             * *         



--------------------------|
--------------------------|
--------------------------|
-------------5---4--------|
-------------3---2--------|
-0------------------------|







3:46


----------------------------------------------------------------------|
----------------------------------------------------------------------|
----------------------------------------------------------------------|
-----222-----222-----222------^---------222-----222-----222------^----|
-----------------------------2-0--------------------------------2-0---|
-0-0-----0-0-----0-0-----0-0-----3--0-0-----0-0-----0-0-----0-0-----3-|


----------------------------------------------------------------------|
----------------------------------------------------------------------|
----------------------------------------------------------------------|
-----222-----222-----222------^---------222-----222-----222------^----|
-----------------------------2-0--------------------------------2-0---|
-0-0-----0-0-----0-0-----0-0-----3--0-0-----0-0-----0-0-----0-0-----3-|




4:00

--------------------------------------------------------------------------|
--------------------------------------------------------------------------|
---------------------------___----------------------------------___-------|
-----444-----444-----444--/   \-----------444-----444-----444--/   \------|
-------------------------4-2-4-2------------------------------4-2-4-2-----|
-2-2-----2-2-----2-2-------------5-4--2-2-----2-2-----2-2-------------5-4-|


--------------------------------------------------------------------------|
--------------------------------------------------------------------------|
---------------------------___----------------------------------___-------|
-----444-----444-----444--/   \-----------444-----444-----444--/   \------|
-------------------------4-2-4-2------------------------------4-2-4-2-----|
-2-2-----2-2-----2-2-------------5-4--2-2-----2-2-----2-2-------------5-4-|


--------------------------------------------------------------------------|
--------------------------------------------------------------------------|
---------------------------___----------------------------------___-------|
-----444-----444-----444--/   \-----------444-----444-----444--/   \------|
-------------------------4-2-4-2------------------------------4-2-4-2-----|
-2-2-----2-2-----2-2-------------5-4--2-2-----2-2-----2-2-------------5-4-|


--------------------------------------------------------------------------|
--------------------------------------------------------------------------|
---------------------------___----------------------------------___-------|
-----444-----444-----444--/   \-----------444-----444-----444--/   \------|
-------------------------4-2-4-2------------------------------4-2-4-2-----|
-2-2-----2-2-----2-2-------------5-4--2-2-----2-2-----2-2-------------5-4-|




4:27

---------------------------------------------------------------------------|
---------------------------------------------------------------------------|
---------------------------___----------------------------------___--------|
-----666-----666-----666--/   \-----------666-----666-----666--/   \-------|
-------------------------6-4-6-4------------------------------6-4-6-4------|
-4-4-----4-4-----4-4-------------7-6--4-4-----4-4-----4-4-------------7-6--|



4:34

-------------------------------------------------------------------------|
-------------------------------------------------------------------------|
-------------------------------------------------------------------------|
-----777-----777-----777-----777-----------------------------------------|
----------------------------------9--9999--9--9999--9-9--9-9--9--9--9--9-|
-5-5-----5-5-----5-5-----5-5------7--7777--7--7777--7-7--7-7--7--7--7--7-|





4:41


----------------------------------------------------------------|
----------------------------------------------------------------|
----------------------------------------------------------------|
--------^-------^-----------------------^-------^---------------|
-------5-------4-------3---4-5---------5-------4-------3---4-5--|
0--0-0-3-0-0-0-2-0-0-0-1-0-2-3--0--0-0-3-0-0-0-2-0-0-0-1-0-2-3--|
*  * *     * *     * *   *      *  * *     * *     * *   *      

----------------------------------------------------------------|
----------------------------------------------------------------|
----------------------------------------------------------------|
--------^-------^-----------------------^-------^---------------|
-------5-------4-------3---4-5---------5-------4-------3---4-5--|
0--0-0-3-0-0-0-2-0-0-0-1-0-2-3--0--0-0-3-0-0-0-2-0-0-0-1-0-2-3--|
*  * *     * *     * *   *      *  * *     * *     * *   *   





4:55

----------------------------------------------------------|
----------------------------------------------------------|
----------------------------------------------------------|
----------------------------------^-------^---------------|
---------------------------------5-------4-------3---4-5--|
-0--0--3--5--6~--0--3--5--0--0-0-3-0-0-0-2-0-0-0-1-0-2-3--|
                          *  * *     * *     * *   *

----------------------------------------------------------|
----------------------------------------------------------|
----------------------------------------------------------|
----------------------------------^-------^---------------|
---------------------------------5-------4-------3---4-5--|
-0--0--3--5--6~--0--3--5--0--0-0-3-0-0-0-2-0-0-0-1-0-2-3--|
                          *  * *     * *     * *   *

----------------------------------------------------------|
----------------------------------------------------------|
----------------------------------------------------------|
----------------------------------^-------^---------------|
---------------------------------5-------4-------3---4-5--|
-0--0--3--5--6~--0--3--5--0--0-0-3-0-0-0-2-0-0-0-1-0-2-3--|
                          *  * *     * *     * *   *

----------------------------------------------------------|
----------------------------------------------------------|
----------------------------------------------------------|
----------------------------------^-------^---------------|
---------------------------------5-------4-------3---4-5--|
-0--0--3--5--6~--0--3--5--0--0-0-3-0-0-0-2-0-0-0-1-0-2-3--|
                          *  * *     * *     * *   *



5:22

-------0-----------------0-----------------0----------------0----------|
-----------0-----------0-----0----------------0-----------0-----0------|
-----5-------5-------5---------5---------5------5-------2---------2----|
---7-----------7---6-------------6-----7----------7---3-------------3--|
-0-----------------------------------0---------------------------------|
-----------------------------------------------------------------------|


-------0-----------------0-----------------0----------------0----------|
-----------0-----------0-----0----------------0-----------0-----0------|
-----5-------5-------7---------7---------5------5-------2---------2----|
---7-----------7---6-------------6-----7----------7---3-------------3--|
-0-----------------------------------0---------------------------------|
-----------------------------------------------------------------------|






5:50

----------------------------------------------------------------|
----------------------------------------------------------------|
----------------------------------------------------------------|
--------^-------^-----------------------^-------^---------------|
-------5-------4-------3---4-5---------5-------4-------3---4-5--|
0--0-0-3-0-0-0-2-0-0-0-1-0-2-3--0--0-0-3-0-0-0-2-0-0-0-1-0-2-3--|
*  * *     * *     * *   *      *  * *     * *     * *   *      

----------------------------------------------------------------|
----------------------------------------------------------------|
----------------------------------------------------------------|
--------^-------^-----------------------^-------^---------------|
-------5-------4-------3---4-5---------5-------4-------3---4-5--|
0--0-0-3-0-0-0-2-0-0-0-1-0-2-3--0--0-0-3-0-0-0-2-0-0-0-1-0-2-3--|
*  * *     * *     * *   *      *  * *     * *     * *   *   




6:04

---------------------------------------------------------------------------|
---------------------------------------------------------------------------|
---------------------------------------------------------------------------|
------9---3-----------9---3---4-5-4---------9---3-----------9---3---4-5-4--|
-----/7---1----------/7---1---2-3-2--------/7---1----------/7---1---2-3-2--|
-0---------------0---------------------0-------------0---------------------|
        \               \                     \               \          

---------------------------------------------------------------------------|
---------------------------------------------------------------------------|
---------------------------------------------------------------------------|
------9---3-----------9---3---4-5-4---------9---3-----------9---3---4-5-4--|
-----/7---1----------/7---1---2-3-2--------/7---1----------/7---1---2-3-2--|
-0---------------0---------------------0-------------0---------------------|
        \               \                     \               \          |









|||||||||||||||||||||||||||||||||||||||||||||||||||||||||||
|||||||||||||||||||||||||||||||||||||||||||||||||||||||||||
|||||||||||||||||||||||||||||||||||||||||||||||||||||||||||
|||||||||||||||||||||||||||||||||||||||||||||||||||||||||||
|||||||||||||||||||||||||||||||||||||||||||||||||||||||||||
|||||||||||||||||||||||||||||||||||||||||||||||||||||||||||




TRACK 9



METHADEMIC


E STANDARD DETUNED TUNING  or  Eb TUNING WITH ALL NOTES SHARP 
(in between Eb and E)


  Eb+-Ab+-Db+-Gb+-Bb+-Eb+




                                                 _
----------------------------0-------------------/ \---------------------|
----------0---------------0---------------0-1--0-1-0---------------0----|
--------0---------------0---------------2------------2-----------0------|
------2---------------2---------------2----------------2-------2--------|
----2-----------2--1------------1~~-0------------------------2----------|
-0--------------------------------------------------------0-------------|

                                                 _
----------------------------0-------------------/ \---------------------|
----------0---------------0---------------0-1--0-1-0---------------0----|
--------0---------------0---------------2------------2-----------0------|
------2---------------2---------------2----------------2-------2--------|
----2-----------2--1------------1~~-0------------------------2----------|
-0--------------------------------------------------------0-------------|



-----------0------------------0-2--------0------|
---------0----0-------------3-----3------0------|
-------0---------0--------2---------2----0------|
-----2--------------2--0--------------0--2------|
-/3--------------------------------------2------|
-----------------------------------------0------|





0:34

--------------------------------------------------------------|
--------------------------------------------------------------|
--------------------------------------------------------------|
-----------------------------------------------------------5--|
-----------------------------------------------------3--4--3--|
-0--0-2-0-1-0-3--0--0-2-0-1-0-3--0---0-2-0-1-0-3--0--1--2-----|


--------------------------------------------------------------|
--------------------------------------------------------------|
--------------------------------------------------------------|
--------------------------------------------------------------|
-----------------------------------------------------5--4--3--|
-0--0-2-0-1-0-3--0--0-2-0-1-0-3--0---0-2-0-1-0-3--0--3--2--1--|


--------------------------------------------------------------|
--------------------------------------------------------------|
--------------------------------------------------------------|
-----------------------------------------------------------5--|
-----------------------------------------------------3--4--3--|
-0--0-2-0-1-0-3--0--0-2-0-1-0-3--0---0-2-0-1-0-3--0--1--2-----|


----------------------------------------------------------------|
----------------------------------------------------------------|
----------------------------------------------------------------|
-----------------------------------------------------4--5--7--9-|
-----------------------------------------------------2--3--5--7-|
-0--0-2-0-1-0-3--0--0-2-0-1-0-3--0---0-2-0-1-0-3--0-------------|





1:04


------------0--------------0--------------0---------------0------|
----------0--------------0--------------0---------------0--------|
--------0--------------0--------------0--------------0-----------|
------2--------------5--------------2--------------8-------------|
----2--------------5--------------2--------------7---------------|
-0--------------0--------------0--------------0------------------|


------------0--------------0--------------0----------------0-----|
----------0--------------0--------------0----------------0-------|
--------0--------------0--------------0---------------0----------|
------2--------------5--------------2---------------8------------|
----2--------------5--------------2--------------7---------------|
-0--------------0--------------0--------------0------------------|






1:28

---------------------------------------------------------------------|
---------------------------------------------------------------------|
---------------------------------------------------------------------|
---------------3--------------------------------3--------------------|
-----5-4---4-5-1------5-4---4-5-4-----5-4---4-5-1------5-4---4-5-4---|
-0---3-2-0-2-3----0---3-2-0-2-3-2-0---3-2-0-2-3----0---3-2-0-2-3-2---|



---------------------------------------------------------------------|
---------------------------------------------------------------------|
---------------------------------------------------------------------|
---------------3--------------------------------3--------------------|
-----5-4---4-5-1------5-4---4-5-4-----5-4---4-5-1------5-4---4-5-4---|
-0---3-2-0-2-3----0---3-2-0-2-3-2-0---3-2-0-2-3----0---3-2-0-2-3-2---|




1:40


------------0--------------0--------------0---------------0------|
----------0--------------0--------------0---------------0--------|
--------0--------------0--------------0--------------0-----------|
------2--------------5--------------2--------------8-------------|
----2--------------5--------------2--------------7---------------|
-0--------------0--------------0--------------0------------------|


------------0--------------0--------------0----------------0-----|
----------0--------------0--------------0----------------0-------|
--------0--------------0--------------0---------------0----------|
------2--------------5--------------2---------------8------------|
----2--------------5--------------2--------------7---------------|
-0--------------0--------------0--------------0------------------|





2:05

---------------------------------------------------------------------|
---------------------------------------------------------------------|
---------------------------------------------------------------------|
---------------3--------------------------------3--------------------|
-----5-4---4-5-1------5-4---4-5-4-----5-4---4-5-1------5-4---4-5-4---|
-0---3-2-0-2-3----0---3-2-0-2-3-2-0---3-2-0-2-3----0---3-2-0-2-3-2---|





2:12

------------------------------------------|
---------6--------------------------------|
---------5--------------------------------|
-2-------------7--------------------------|
-0-------------5----------5-------5-------|
------------------------X-3~----X-3~---X--|
                        *       *      *

------------------------------------------|
---------6--------------------------------|
---------5--------------------------------|
-2-------------7----------5-------5-------|
-0-------------5----------3~------3~------|
------------------------X-------X------X--|
                        *       *      *

------------------------------------------|
---------6--------------------------------|
---------5--------------------------------|
-2-------------7--------------------------|
-0-------------5----------5-------5-------|
------------------------X-3~----X-3~---X--|
                        *       *      *

------------------------------------------|
---------6-----8--------------------------|
---------5-----7--------------------------|
-2------------------------5-------5-------|
-0------------------------3~------3~------|
------------------------X-------X------X--|
                        *       *      *




2:35

-----------------------------------------------------------------|
-----------------------------------------------------------------|
-----------------------------------------------------------------|
-----------------------------------------------------------------|
-----------------------------------------------------------------|
-0--0-2-0-1-0-3--0--0-2-0-1-0-3--0--0-2-0-1-0-3--0--0-2-0-1-0-3--|


-----------------------------------------------------------------|
-----------------------------------------------------------------|
-----------------------------------------------------------------|
-----------------------------------------------------------------|
-----------------------------------------------------------------|
-0--0-2-0-1-0-3--0--0-2-0-1-0-3--0--0-2-0-1-0-3--0--0-2-0-1-0-3--|




2:47

---------------------------------------------------------------------|
---------------------------------------------------------------------|
-4--------3----------------------------------------------------------|
-2--------2---------2----------2-------------------------------------|
-0--------0---------0----------0-------------------------------------|
-0------0-0-----------------------3~--0--0-2-0-1-0-3--0--0-2-0-1-0-3-|
        *

---------------------------------------------------------------------|
---------------------------------------------------------------------|
-4--------3----------------------------------------------------------|
-2--------2---------2----------2-------------------------------------|
-0--------0---------0----------0-------------------------------------|
-0------0-0-----------------------3~--0--0-2-0-1-0-3--0--0-2-0-1-0-3-|
        *

----------------------------------|
----------------------------------|
----------------------------------|
----------------------------------|
----------------------------------|
-0--0-2-0-1-0-3--0--0-2-0-1-0-3---|




3:15


------------------------------------------|
---------6--------------------------------|
---------5--------------------------------|
-2-------------7--------------------------|
-0-------------5----------5-------5-------|
------------------------X-3~----X-3~---X--|
                        *       *      *

------------------------------------------|
---------6--------------------------------|
---------5--------------------------------|
-2-------------7----------5-------5-------|
-0-------------5----------3~------3~------|
------------------------X-------X------X--|
                        *       *      *

------------------------------------------|
---------6--------------------------------|
---------5--------------------------------|
-2-------------7--------------------------|
-0-------------5----------5-------5-------|
------------------------X-3~----X-3~---X--|
                        *       *      *

------------------------------------------|
---------6-----8--------------------------|
---------5-----7--------------------------|
-2------------------------5-------5-------|
-0------------------------3~------3~------|
------------------------X-------X------X--|
                        *       *      *



3:38

---------------------------------------------------------------|
---------------------------------------------------------------|
---------------------------------------------------------------|
---------------------------------------------------------------|
-----7-6-5-----------7-6-5-----------7-6-5-------5-----7-------|
-0---------7-6-5-0---------7-6-5-0---------7-6-5-3---0-5---0---|
                                                     *     *

----------------------------------------------------------------|
-----------------------------------------------------------_----|
----------------------------------------------------------/ \---|
---------------------------------------------------------7-8-7--|
-----7-6-5-----------7-6-5-----------7-6-5-------5-------5/6\5--|
-0---------7-6-5-0---------7-6-5-0---------7-6-5-3---0----------|
                                                     *     




3:50

SOLO      ~~~~~~__
      )   )     |(                                           
----15--15-----15--13----13--15-17-13~~~----------13-----------|
-15-------------------15-----------------15-13-15----15~~~\----|
---------------------------------------------------------------|
---------------------------------------------------------------|
---------------------------------------------------------------|
---------------------------------------------------------------|


    
3:57

---_-------------------------------------------------|
--|(-------------------------------------------------|
-17--14-17-14----14----12--12--------12---)----------|
--------------15----15---------15-12----15--12-12~~--|
-----------------------------------------------------|
-----------------------------------------------------|
                         |   |

-----------------------------------------|
-----------------------------------------|
-------PH-PH-----------------------------|
-10----12-12-10----10-10-----------------|
----12----------12-------10~-8-10-8-5~~--|
-----------------------------------------|



4:02

                           ~~~~~~~~~^    ~~~~~~
------------------------)--)-------(-----)------------------|
-------------------6---8--8----------6--6-------------------|
-------------5-7-7---7--------------------------7~~~--------|
-----5---5-7------------------------------------------------|
-8-5---8----------------------------------------------------|
------------------------------------------------------------|


                                       2 STEP
-----------------------------------------___-----~~~~~~~~---|
-----13--13--13~~--------15--15--15~~----)--(---)-----------|
-/14---------------/14-----------------15-----15------------|
------------------------------------------------------------|
------------------------------------------------------------|
------------------------------------------------------------|
    |  |   |          |    |   |        




4:19


---------------------------------------------------------------------|
---------------------------------------------------------------------|
---------------------------------------------------------------------|
---------------3--------------------------------3--------------------|
-----5-4---4-5-1------5-4---4-5-4-----5-4---4-5-1------5-4---4-5-4---|
-0---3-2-0-2-3----0---3-2-0-2-3-2-0---3-2-0-2-3----0---3-2-0-2-3-2---|


---------------------------------------------------------------------|
---------------------------------------------------------------------|
---------------------------------------------------------------------|
---------------3--------------------------------3--------------------|
-----5-4---4-5-1------5-4---4-5-4-----5-4---4-5-1------5-4---4-5-4---|
-0---3-2-0-2-3----0---3-2-0-2-3-2-0---3-2-0-2-3----0---3-2-0-2-3-2---|



---------------------------------------------------------------------|
---------------------------------------------------------------------|
---------------------------------------------------------------------|
---------------3--------------------------------3--------------------|
-----5-4---4-5-1------5-4---4-5-4-----5-4---4-5-1------5-4---4-5-4---|
-0---3-2-0-2-3----0---3-2-0-2-3-2-0---3-2-0-2-3----0---3-2-0-2-3-2---|


---------------------------------------------------------------------|
---------------------------------------------------------------------|
---------------------------------------------------------------------|
---------------3--------------------------------3--------------------|
-----5-4---4-5-1------5-4---4-5-4-----5-4---4-5-1------5-4---4-5-4---|
-0---3-2-0-2-3----0---3-2-0-2-3-2-0---3-2-0-2-3----0---3-2-0-2-3-2---|


---------------------------------------------------------------------|
---------------------------------------------------------------------|
---------------------------------------------------------------------|
---------------3--------------------------------3--------------------|
-----5-4---4-5-1------5-4---4-5-4-----5-4---4-5-1------5-4---4-5-4---|
-0---3-2-0-2-3----0---3-2-0-2-3-2-0---3-2-0-2-3----0---3-2-0-2-3-2---|






4:49

----------------------------------------------------------|
----------------------------------------------------------|
----------------------------------------------------------|
----------------------------------------------------------|
----/7--3--2~-3--2--3-2--------/7--3--2--3--2-1---1-------|
-0----------------------3-2-0-------------------3---3-2---|



GT1
----------------------------------------------------------|
----------------------------------------------------------|
----------------------------------------------------------|
----------------------------------------------------------|
----/7--3--2~-3--2--3-2--------/7--3--2--3--2-1---1-------|
-0----------------------3-2-0-------------------3---3-2---|

GT2
------------------------------------------------------------------|
------------------------------------------------------------------|
------------------------------------------------------------------|
--/14--10--9~--10--9--10-9--------/14--10--9--10--9-8----8--------|
---------------------------10-9-7---------------------10---10-9-7-|
0-----------------------------------------------------------------|






---------------------------------------------------------------------|
---------------------------------------------------------------------|
---------------------------------------------------------------------|
---------------3--------------------------------3--------------------|
-----5-4---4-5-1------5-4---4-5-4-----5-4---4-5-1------5-4---4-5-4---|
-0---3-2-0-2-3----0---3-2-0-2-3-2-0---3-2-0-2-3----0---3-2-0-2-3-2---|


---------------------------------------------------------------------|
---------------------------------------------------------------------|
---------------------------------------------------------------------|
---------------3--------------------------------3--------------------|
-----5-4---4-5-1------5-4---4-5-4-----5-4---4-5-1------5-4---4-5-4---|
-0---3-2-0-2-3----0---3-2-0-2-3-2-0---3-2-0-2-3----0---3-2-0-2-3-2---|



---------------------------------------------------------------------|
---------------------------------------------------------------------|
---------------------------------------------------------------------|
---------------3--------------------------------3--------------------|
-----5-4---4-5-1------5-4---4-5-4-----5-4---4-5-1------5-4---4-5-4---|
-0---3-2-0-2-3----0---3-2-0-2-3-2-0---3-2-0-2-3----0---3-2-0-2-3-2---|


---------------------------------------------------------------------|
---------------------------------------------------------------------|
---------------------------------------------------------------------|
---------------3--------------------------------3--------------------|
-----5-4---4-5-1------5-4---4-5-4-----5-4---4-5-1------5-4---4-5-4---|
-0---3-2-0-2-3----0---3-2-0-2-3-2-0---3-2-0-2-3----0---3-2-0-2-3-2---|


---------------------------------------------------------------------|
---------------------------------------------------------------------|
---------------------------------------------------------------------|
---------------3--------------------------------3--------------------|
-----5-4---4-5-1------5-4---4-5-4-----5-4---4-5-1------5-4---4-5-4---|
-0---3-2-0-2-3----0---3-2-0-2-3-2-0---3-2-0-2-3----0---3-2-0-2-3-2---|



---------------------------------------------------------------------|
---------------------------------------------------------------------|
---------------------------------------------------------------------|
---------------3--------------------------------3--------------------|
-----5-4---4-5-1------5-4---4-5-4-----5-4---4-5-1------5-4---4-5-4---|
-0---3-2-0-2-3----0---3-2-0-2-3-2-0---3-2-0-2-3----0---3-2-0-2-3-2---|


----------------------------------------------------------------------|
----------------------------------------------------------------------|
----------------------------------------------------------------------|
---------------3--------------------------------3---------------------|
-----5-4---4-5-1------5-4---4-5-4-----5-4---4-5-1------5-4---4-5-4-2--|
-0---3-2-0-2-3----0---3-2-0-2-3-2-0---3-2-0-2-3----0---3-2-0-2-3-2-0--|
                                                                    |








|||||||||||||||||||||||||||||||||||||||||||||||||||||||||||
|||||||||||||||||||||||||||||||||||||||||||||||||||||||||||
|||||||||||||||||||||||||||||||||||||||||||||||||||||||||||
|||||||||||||||||||||||||||||||||||||||||||||||||||||||||||
|||||||||||||||||||||||||||||||||||||||||||||||||||||||||||
|||||||||||||||||||||||||||||||||||||||||||||||||||||||||||





TRACK 10


PEACE OF MIND 


E STANDARD DETUNED TUNING  or  Eb TUNING WITH ALL NOTES SHARP 
(in between Eb and E)


  Eb+-Ab+-Db+-Gb+-Bb+-Eb+







---------------------------------------------------------------|
---------------------------------------------------------------|
---------------------------------------------------------------|
-7-9--9--9--12-------------------7-9--9--9--9------------------|
-5/7--7--7--10\----------5-------5/7--7--7--7\----------5--5-7-|
------------------0--0-0-3--0-0------------------0--0-0-3--3/5-|
       ~  ~       *  * *    * *        ~  ~      *  * *

-----------------------------------------------|
-----------------------------------------------|
-----------------------------------------------|
-7-9--9--9--12------------------5-----4--7-----|
-5/7--7--7--10\----------5------3-----2--5-----|
------------------0--0-0-3--0-0----------------|
       ~  ~       *  * *    * *


---------------------------------------------------------------|
---------------------------------------------------------------|
---------------------------------------------------------------|
-7-9--9--9--12-------------------7-9--9--9--9------------------|
-5/7--7--7--10\----------5-------5/7--7--7--7\----------5--5-7-|
------------------0--0-0-3--0-0------------------0--0-0-3--3/5-|
       ~  ~       *  * *    * *        ~  ~      *  * *

-----------------------------------------------|
-----------------------------------------------|
-----------------------------------------------|
-7-9--9--9--12------------------5-----4--7-----|
-5/7--7--7--10\----------5------3-----2--5-----|
------------------0--0-0-3--0-0----------------|
       ~  ~       *  * *    * *




0:29

---------------------------------------------------------------|
---------------------------------------------------------------|
---------------------------------------------------------------|
-7-9--9--9--12-------------------7-9--9--9--9------------------|
-5/7--7--7--10\----------5-------5/7--7--7--7\----------5--5-7-|
------------------0--0-0-3--0-0------------------0--0-0-3--3/5-|
       ~  ~       *  * *    * *        ~  ~      *  * *

---------------------------------------------------------------|
---------------------------------------------------------------|
---------------------------------------------------------------|
-7-9--9--9--12-------------------7-9--9--9--9------------------|
-5/7--7--7--10\----------5-------5/7--7--7--7\----------5--5-7-|
------------------0--0-0-3--0-0------------------0--0-0-3--3/5-|
       ~  ~       *  * *    * *        ~  ~      *  * *

---------------------------------------------------------------|
---------------------------------------------------------------|
---------------------------------------------------------------|
-7-9--9--9--12-------------------7-9--9--9--9------------------|
-5/7--7--7--10\----------5-------5/7--7--7--7\----------5--5-7-|
------------------0--0-0-3--0-0------------------0--0-0-3--3/5-|
       ~  ~       *  * *    * *        ~  ~      *  * *

-----------------------------------------------|
-----------------------------------------------|
-----------------------------------------------|
-7-9--9--9--12------------------5-----4--7-----|
-5/7--7--7--10\----------5------3-----2--5-----|
------------------0--0-0-3--0-0----------------|
       ~  ~       *  * *    * *


---------------------------------------------------------------|
---------------------------------------------------------------|
---------------------------------------------------------------|
-7-9--9--9--12-------------------7-9--9--9--9------------------|
-5/7--7--7--10\----------5-------5/7--7--7--7\----------5--5-7-|
------------------0--0-0-3--0-0------------------0--0-0-3--3/5-|
       ~  ~       *  * *    * *        ~  ~      *  * *

-----------------------------------------------------|
-----------------------------------------------------|
-----------------------------------------------------|
-7-9--9--9--12------------------5---5---9-8-7---7----|
-5/7--7--7--10\----------5------3---3-0-7\6-5---5----|
------------------0--0-0-3--0-0----------------------|
       ~  ~       *  * *    * *




1:12

---------------------------------------------------------------|
---------------------------------------------------------------|
---------------------------------------------------------------|
-7-9--9--9--12-------------------7-9--9--9--9------------------|
-5/7--7--7--10\----------5-------5/7--7--7--7\----------5--5-7-|
------------------0--0-0-3--0-0------------------0--0-0-3--3/5-|
       ~  ~       *  * *    * *        ~  ~      *  * *

---------------------------------------------------------------|
---------------------------------------------------------------|
---------------------------------------------------------------|
-7-9--9--9--12-------------------7-9--9--9--9------------------|
-5/7--7--7--10\----------5-------5/7--7--7--7\----------5--5-7-|
------------------0--0-0-3--0-0------------------0--0-0-3--3/5-|
       ~  ~       *  * *    * *        ~  ~      *  * *

---------------------------------------------------------------|
---------------------------------------------------------------|
---------------------------------------------------------------|
-7-9--9--9--12-------------------7-9--9--9--9------------------|
-5/7--7--7--10\----------5-------5/7--7--7--7\----------5--5-7-|
------------------0--0-0-3--0-0------------------0--0-0-3--3/5-|
       ~  ~       *  * *    * *        ~  ~      *  * *

-----------------------------------------------|
-----------------------------------------------|
-----------------------------------------------|
-7-9--9--9--12------------------5-------4--7---|
-5/7--7--7--10\----------5------3-----3-2--5---|
------------------0--0-0-3--0-0----------------|
       ~  ~       *  * *    * *  ~



1:41


--------------------------------------------------------------------|
--------------------------------------------------------------------|
--------------------------------------------------------------------|
-5--4-----4--3----5--4-----4--3----5--4-----4--3----5--4--3---------|
-3--2--5--2--1----3--2--5--2--1----3--2--5--2--1----3--2--1-5--4--3-|
-------3-------1--------3-------1--------3-------1----------3--2--1-|



1:55

-------------------------------------------------------|
-------------------------------------------------------|
-------------------------------------------------------|
-------------------------------------------------------|
-2------2-3-3--------3-2----2------2-3-3--------3-5----|
-0--0-0-----1----1-1-----3--0--0-0-----1----1-1-1-3----|


------------------------------------------------------------|
------------------------------------------------------------|
------------------------------------------------------------|
------------------------------------------------------------|
-2------2-3-3--------3-2----2------2-3-3-------------3-5----|
-0--0-0-----1----1-1-----3--0--0-0-----1-------------1-3----|





2:11

--------------------------------------------------------------------|
--------------------------------------------------------------------|
-9------9-----9---9-----9-----9--10-----10----10---9-----9---7-7-9--|
-7------7-----7---7-----7-----7---7------7-----7---7-----7---5-5/7--|
---0-0----0-0---0---0-0---0-0---0---0-0----0-0---0---0-0---0--------|
--------------------------------------------------------------------|
   * *    * *   *   * *   * *   *   * *    * *   *   * *   *

---------------------------------------------------------------------|
-------------------------------------------------------_-------------|
-9------9-----9---9-----9-----9--10-----10----10------/ \------------|
-7------7-----7---7-----7-----7---7------7-----7-----5-7-5---5-7-----|
---0-0----0-0---0---0-0---0-0---0---0-0----0-0---00--3/5\3-0-3/5-5-7-|
-----------------------------------------------------------------3/5-|
   * *    * *   *   * *   * *   *   * *    * *   **   


--------------------------------------------------------------------|
--------------------------------------------------------------------|
-9------9-----9---9-----9-----9--10-----10----10---9-----9---7-7-9--|
-7------7-----7---7-----7-----7---7------7-----7---7-----7---5-5/7--|
---0-0----0-0---0---0-0---0-0---0---0-0----0-0---0---0-0---0--------|
--------------------------------------------------------------------|
   * *    * *   *   * *   * *   *   * *    * *   *   * *   *

--------------------------------------------------------------------|
--------------------------------------------------------------------|
-9------9-----9---9-----9-----9--10-----10----10---9-----9-----9----|
-7------7-----7---7-----7-----7---7------7-----7---7-----7-----7\---|
---0-0----0-0---0---0-0---0-0---0---0-0----0-0---0---0-0---0-0----0-|
--------------------------------------------------------------------|
   * *    * *   *   * *   * *   *   * *    * *   *   * *   * *    *




2:38

--------0-------------------------0-------------|
------0-----------0-------------0-----0---------|
------------------------------5----------5------|
---10---------10----10\9----7---------------7---|
/8---------8--------------0---------------------|
------------------------------------------------|


--------0-------------------------0-------------|
------0-----------0-------------0-----0---------|
------------------------------5----------5------|
---10---------10----10\9----7---------------7---|
/8---------8--------------0---------------------|
------------------------------------------------|

--------0-------------------------0-------------|
------0-----------0-------------0-----0---------|
------------------------------5----------5------|
---10---------10----10\9----7---------------7---|
/8---------8--------------0---------------------|
------------------------------------------------|


--------0---------------------------------------------|
------0-----------0-----------------------------------|
------------------------------------------------------|
---10---------10----10\9--9-9-9-9-9-9-9-9-9-9-9-9-9-5-|
/8---------8--------------7-7-7-7-7-7-7-7-7-7-7-7-7-3-|
------------------------------------------------------|
                                                     ~



-------------------------------|
---------------_---------------|
--------------/ \--------------|
-2--5--7--7--7-8-7-5--2--5--7--|
-0--3--5--5--5/6\5-3--0--3--5--|
-------------------------------|


---------------------------------------------------|
---------------_-----------------------------------|
--------------/ \----------------------------------|
-2--5--7--7--7-8-7-5--2--5--7----------------------|
-0--3--5--5--5/6\5-3--0--3--5--------------------\-|
---------------------------------------------------|
                             ~~~~~~~~~~~~~~~~~~~~









||||||||||||||||||||||||||||||||||||||||||||||||||
||||||||||||||||||||||||||||||||||||||||||||||||||
||||||||||||||||||||||||||||||||||||||||||||||||||
||||||||||||||||||||||||||||||||||||||||||||||||||
||||||||||||||||||||||||||||||||||||||||||||||||||




TRACK 11



PARIAH 


E STANDARD DETUNED or Eb with all notes sharp

(IN BETWEEN Eb AND E)

Eb+-Ab+-Db+-Gb+-Bb+-Eb+





---------------------------------------------------------------|
---------------------------------------------------------------|
----------0-------------0----------5-----------------0---------|
-------4-------------0----------5-----5-----------0------------|
----2-------------2--------0-3-----------------3---------------|
-0-----------0-3----------------------------5-------------3~---|


---------------------------------------------------------------|
---------------------------------------------------------------|
----------0-------------0----------5-----------------0---------|
-------4-------------0----------5-----5-----------0------------|
----2--------2----2--------0-3----------3------3---------------|
-0-------------3----------------------------5-------------3~---|


------------------------------------------------------|
------------------------------------------------------|
----------0-------------0----------5------------------|
-------4-------------0----------5-----5----2----------|
----2-------------2--------0-3----------3--0----------|
-0-----------0-3--------------------------------------|





0:29


------------------------------------------------|
---------------------------------------8-8------|
---------------------------------------7-7~\----|
------------------------------------------------|
----7-6-5---5-----------------------------------|
-0--------7-----7-6-5-0-3--0-3--0--0------------|


-----------------------------------------------|
-----------------------------------------------|
-----------------------------------------------|
-----------------------------------------7-9---|
----7-6-5---5----------------------------5-7---|
-0--------7-----7-6-5-0-3--0-3-0--3-0-0--------|


------------------------------------------------|
---------------------------------------8-8------|
---------------------------------------7-7~\----|
------------------------------------------------|
----7-6-5---5-----------------------------------|
-0--------7-----7-6-5-0-3--0-3--0--0------------|


-------------------------------------------|
-------------------------------------------|
-------------------------------------------|
-------------------------------------------|
----7-6-5---5------------------------------|
-0--------7-----7-6-5-0-3--0-3-0--3-0------|





0:45


----------------------------------------------------------------|
----------------------------------------------------------------|
----------------------------------------------------------------|
-7-9----12-11----7-9---------7-9----12-11----7-9----------------|
-5-7----10--9----5-7---------5-7----10--9----5-7-------8--7--5--|
-------------------------------------------------------6--5--3--|
     |        |                  |        |

--------------------------------------------------------|
--------------------------------------------------------|
--------------------------------------------------------|
-7-9----12-11----7-9---------7-9----12-11----7-9--------|
-5-7----10--9----5-7---------5-7----10--9----5-7--------|
--------------------------------------------------------|
     |        |                  |        |

----------------------------------------------------------------|
----------------------------------------------------------------|
----------------------------------------------------------------|
-7-9----12-11----7-9---------7-9----12-11----7-9----------------|
-5-7----10--9----5-7---------5-7----10--9----5-7-------8--7--5--|
-------------------------------------------------------6--5--3--|
     |        |                  |        |

--------------------------------------------------------|
--------------------------------------------------------|
--------------------------------------------------------|
-7-9----12-11----7-9---------7-9----12-11----7-9--------|
-5-7----10--9----5-7---------5-7----10--9----5-7--------|
--------------------------------------------------------|
     |        |                  |        |


----------------------------------------------------------------|
----------------------------------------------------------------|
----------------------------------------------------------------|
-7-9----12-11----7-9---------7-9----12-11----7-9----------------|
-5-7----10--9----5-7---------5-7----10--9----5-7-------8--7--5--|
-------------------------------------------------------6--5--3--|
     |        |                  |        |

--------------------------------------------------------|
--------------------------------------------------------|
--------------------------------------------------------|
-7-9----12-11----7-9---------7-9----12-11----7-9--------|
-5-7----10--9----5-7---------5-7----10--9----5-7--------|
--------------------------------------------------------|
     |        |                  |        |






1:36

---------------------------------------------------------|
---------------------------------------------------------|
---------------------------------------------------------|
------2-1--------5-4----7--7-7-7-7-7-7-7-----------------|
--0---------2-3-------3-5--5-5-5-5-5-5-5\--------3---3~--|
-------------------------------------------0-3-5---5-----|
                                         |

-------------------------------------------------------|
-------------------------------------------------------|
-------------------------------------------------------|
------2-1--------5-4---7--7-7-7-7-7-7-8--8-8-8-8-8-8-8-|
--0--------2-3-------3-5--5-5-5-5-5-5-6--6-6-6-6-6-6-6-|
-------------------------------------------------------|
                                       
                                       






1:53


------------------------------------------------|
---------------------------------------8-8------|
---------------------------------------7-7~\----|
------------------------------------------------|
----7-6-5---5-----------------------------------|
-0--------7-----7-6-5-0-3--0-3--0--0------------|


-----------------------------------------------|
-----------------------------------------------|
-----------------------------------------------|
-----------------------------------------7-9---|
----7-6-5---5----------------------------5-7---|
-0--------7-----7-6-5-0-3--0-3-0--3-0-0--------|


------------------------------------------------|
---------------------------------------8-8------|
---------------------------------------7-7~\----|
------------------------------------------------|
----7-6-5---5-----------------------------------|
-0--------7-----7-6-5-0-3--0-3--0--0------------|


-------------------------------------------|
-------------------------------------------|
-------------------------------------------|
-------------------------------------------|
----7-6-5---5------------------------------|
-0--------7-----7-6-5-0-3--0-3-0--3-0------|





2:10


----------------------------------------------------------------|
----------------------------------------------------------------|
----------------------------------------------------------------|
-7-9----12-11----7-9---------7-9----12-11----7-9----------------|
-5-7----10--9----5-7---------5-7----10--9----5-7-------8--7--5--|
-------------------------------------------------------6--5--3--|
     |        |                  |        |

--------------------------------------------------------|
--------------------------------------------------------|
--------------------------------------------------------|
-7-9----12-11----7-9---------7-9----12-11----7-9--------|
-5-7----10--9----5-7---------5-7----10--9----5-7--------|
--------------------------------------------------------|
     |        |                  |        |

----------------------------------------------------------------|
----------------------------------------------------------------|
----------------------------------------------------------------|
-7-9----12-11----7-9---------7-9----12-11----7-9----------------|
-5-7----10--9----5-7---------5-7----10--9----5-7-------8--7--5--|
-------------------------------------------------------6--5--3--|
     |        |                  |        |

--------------------------------------------------------|
--------------------------------------------------------|
--------------------------------------------------------|
-7-9----12-11----7-9---------7-9----12-11----7-9--------|
-5-7----10--9----5-7---------5-7----10--9----5-7--------|
--------------------------------------------------------|
     |        |                  |        |





2:43


---------------------------------------------------------|
---------------------------------------------------------|
---------------------------------------------------------|
------2-1--------5-4----7--7-7-7-7-7-7-7-----------------|
--0---------2-3-------3-5--5-5-5-5-5-5-5\--------3---3~--|
-------------------------------------------0-3-5---5-----|
                                         |

-------------------------------------------------------|
-------------------------------------------------------|
-------------------------------------------------------|
------2-1--------5-4---7--7-7-7-7-7-7-8--8-8-8-8-8-8-8-|
--0--------2-3-------3-5--5-5-5-5-5-5-6--6-6-6-6-6-6-6-|
-------------------------------------------------------|
                                       





3:01


------------------------------------------------|
---------------------------------------8-8------|
---------------------------------------7-7~\----|
------------------------------------------------|
----7-6-5---5-----------------------------------|
-0--------7-----7-6-5-0-3--0-3--0--0------------|


-----------------------------------------------|
-----------------------------------------------|
-----------------------------------------------|
-----------------------------------------7-9---|
----7-6-5---5----------------------------5-7---|
-0--------7-----7-6-5-0-3--0-3-0--3-0-0--------|


------------------------------------------------|
---------------------------------------8-8------|
---------------------------------------7-7~\----|
------------------------------------------------|
----7-6-5---5-----------------------------------|
-0--------7-----7-6-5-0-3--0-3--0--0------------|


-------------------------------------------|
-------------------------------------------|
-------------------------------------------|
-------------------------------------------|
----7-6-5---5------------------------------|
-0--------7-----7-6-5-0-3--0-3-0--3-0------|







3:17

----------------------------------------------------------|
----------------------------------------------------------|
----------------------------------------------------------|
-------5-----------7-----7/9--------5~~--------7----------|
----7-----------6-----6----------7----------6-----6-6/9---|
-0-----------0----------------0----------0----------------|

----------------------------------------------------------|
----------------------------------------------------------|
----------------------------------------------------------|
-------5-----------7-----7/9--------5~~--------7----------|
----7-----------6-----6----------7----------6-----6-6/9---|
-0-----------0----------------0----------0----------------|

----------------------------------------------------------|
----------------------------------------------------------|
----------------------------------------------------------|
-------5-----------7-----7/9--------5~~--------7----------|
----7-----------6-----6----------7----------6-----6-6/9---|
-0-----------0----------------0----------0----------------|

----------------------------------------------------------|
----------------------------------------------------------|
----------------------------------------------------------|
-------5-----------7-----7/9--------5~~--------7----------|
----7-----------6-----6----------7----------6-----6-6/9---|
-0-----------0----------------0----------0----------------|






3:52

-----------------------------------------------------------------------|
-----------------------------------------------------------------------|
-----------------------------------------------------------------------|
------------5-----------------2----------------5-----------------2-----|
------------3-----------------0----------------3-----------------0-----|
-0---2---3---------0---2---3-----3~-0---2---3---------0---2---3--------|





4:12

----------------------------------------------)-------------------|
--------------------------------------------10--8~--10-8-7--------|
---------------------------------------7~~7----------------7---9--|
---2-4-5~~~--------4-4/7~~~------7-7/9-----------------------9----|
------------------------------------------------------------------|
-0------------3-0-------------5-----------------------------------|



4:22

   ~~~~~~~__
---)-----|-(------------------------------|
-15-----15---12-15-12---------)-----------|
----------------------14-12-14--12~~~~----|
------------------------------------------|
------------------------------------------|
------------------------------------------|



4:26
----_____---------------------------------------------|
---/     \--------------------------------------------|
-12-14-12-11------------------------------------------|
-------------12----14-12~----^------------------------|
----------------14---------14-12----12-14-12----------|
---------------------------------15----------15-12~~--|
                     |


4:31

-------------------------------------__-----------------------|
------------------------------------/  \----------------------|
-------------------------12-11-12-11-12-11----11--------------|
-------------------12-14-------------------14----12-14~~~~~---|
----------10-12-14--------------------------------------------|
-10-12-14-----------------------------------------------------|


    
4:35
        ____~~~~                          ~~~~~~~
--------)--|-------12-14-15-14-12----12---)------|
---12-15--15----------------------15----15-------|
-12----------------------------------------------|
-------------------------------------------------|
-------------------------------------------------|
-------------------------------------------------|
         |


4:39

~~__
--|-(---------------------------------------------|
-15---12-15---------------------------------------|
------------12-11~~-14-11-------------------------|
-------------------------12---14-12----12~~~~~~~--|
---------------------------14-------14------------|
--------------------------------------------------|



4:44

---------------------------------------------------------|
---------------------------------------------------------|
-------------------------_____---------------------------|
------------------------/     \---------------)----------|
-/14---12---10---12---10-12-10-9--10---12---14---12~~~---|
---------------------------------------------------------|
     |    |    |   |                |    |     |   





4:48

------------------------------------------------|
---------------------------------------8-8------|
---------------------------------------7-7~\----|
------------------------------------------------|
----7-6-5---5-----------------------------------|
-0--------7-----7-6-5-0-3--0-3--0--0------------|


-----------------------------------------------|
-----------------------------------------------|
-----------------------------------------------|
-----------------------------------------7-9---|
----7-6-5---5----------------------------5-7---|
-0--------7-----7-6-5-0-3--0-3-0--3-0-0--------|


------------------------------------------------|
---------------------------------------8-8------|
---------------------------------------7-7~\----|
------------------------------------------------|
----7-6-5---5-----------------------------------|
-0--------7-----7-6-5-0-3--0-3--0--0------------|


-----------------------------------------------|
-----------------------------------------------|
-----------------------------------------------|
-----------------------------------------7-9---|
----7-6-5---5----------------------------5-7---|
-0--------7-----7-6-5-0-3--0-3-0--3-0-0--------|


------------------------------------------------|
---------------------------------------8-8------|
---------------------------------------7-7~\----|
------------------------------------------------|
----7-6-5---5-----------------------------------|
-0--------7-----7-6-5-0-3--0-3--0--0------------|


-----------------------------------------------|
-----------------------------------------------|
-----------------------------------------------|
-----------------------------------------7-9---|
----7-6-5---5----------------------------5-7---|
-0--------7-----7-6-5-0-3--0-3-0--3-0-0--------|



------------------------------------------------|
---------------------------------------8-8------|
---------------------------------------7-7~\----|
------------------------------------------------|
----7-6-5---5-----------------------------------|
-0--------7-----7-6-5-0-3--0-3--0--0------------|


-------------------------------------------|
-------------------------------------------|
-------------------------------------------|
-------------------------------------------|
----7-6-5---5------------------------------|
-0--------7-----7-6-5-0-3--0-3-0--3-0------|









|||||||||||||||||||||||||||||||||||||||||||||||||||||||||||
|||||||||||||||||||||||||||||||||||||||||||||||||||||||||||
|||||||||||||||||||||||||||||||||||||||||||||||||||||||||||
|||||||||||||||||||||||||||||||||||||||||||||||||||||||||||
|||||||||||||||||||||||||||||||||||||||||||||||||||||||||||
|||||||||||||||||||||||||||||||||||||||||||||||||||||||||||





TRACK 12


NAIVETE IN BLACK

Eb-Ab-Db-Gb-Bb-Eb



semi pm'd throughout

GTL
--------------------------------------------------------------------|
-------------------------------------------------------^------------|
------1-----------------1-----------------1-----1-----1-3-1---------|
------1-----------------1-----------------1-----1-----1-3-1---------|
--------------------------------------------------------------------|
-1-3----3---3---3--1-3-----3---3---3--1-3---3-3---3-3-------3--3--3-|


GTR
---------------------------------------------------------------------|
---------------------------------------------------------------------|
---------------------------------------------------------------------|
---------------------------------------------------------------------|
---------------------------------------------------------------------|
-----4--3---3---3--1-3--4--3---3---3--1-3-4-3-3-4-3-3-4/6-4--3--3--3-|


GTL
--------------------------------------------------------------------|
-------------------------------------------------------^------------|
------1-----------------1-----------------1-----1-----1-3-1---------|
------1-----------------1-----------------1-----1-----1-3-1---------|
--------------------------------------------------------------------|
-1-3----3---3---3--1-3-----3---3---3--1-3---3-3---3-3-------3--3--3-|


GTR
---------------------------------------------------------------------|
---------------------------------------------------------------------|
---------------------------------------------------------------------|
---------------------------------------------------------------------|
---------------------------------------------------------------------|
-1-3-4--3---3---3--1-3--4--3---3---3--1-3-4-3-3-4-3-3-4/6-4--3--3--3-|




GTL
--------------------------------------------------------------------|
-------------------------------------------------------^------------|
------1-----------------1-----------------1-----1-----1-3-1---------|
------1-----------------1-----------------1-----1-----1-3-1---------|
--------------------------------------------------------------------|
-1-3----3---3---3--1-3-----3---3---3--1-3---3-3---3-3-------3--3--3-|


GTR
---------------------------------------------------------------------|
---------------------------------------------------------------------|
---------------------------------------------------------------------|
---------------------------------------------------------------------|
---------------------------------------------------------------------|
-1-3-4--3---3---3--1-3--4--3---3---3--1-3-4-3-3-4-3-3-4/6-4--3--3--3-|




GTL
--------------------------------------------------------------------|
-------------------------------------------------------^------------|
------1-----------------1-----------------1-----1-----1-3-1---------|
------1-----------------1-----------------1-----1-----1-3-1---------|
--------------------------------------------------------------------|
-1-3----3---3---3--1-3-----3---3---3--1-3---3-3---3-3-------3--3--3-|


GTR
---------------------------------------------------------------------|
---------------------------------------------------------------------|
---------------------------------------------------------------------|
---------------------------------------------------------------------|
---------------------------------------------------------------------|
-1-3-4--3---3---3--1-3--4--3---3---3--1-3-4-3-3-4-3-3-4/6-4--3--3--3-|



GTL
--------------------------------------------------------------------|
-------------------------------------------------------^------------|
------1-----------------1-----------------1-----1-----1-3-1---------|
------1-----------------1-----------------1-----1-----1-3-1---------|
--------------------------------------------------------------------|
-1-3----3---3---3--1-3-----3---3---3--1-3---3-3---3-3-------3--3--3-|


GTR
---------------------------------------------------------------------|
---------------------------------------------------------------------|
---------------------------------------------------------------------|
---------------------------------------------------------------------|
---------------------------------------------------------------------|
-1-3-4--3---3---3--1-3--4--3---3---3--1-3-4-3-3-4-3-3-4/6-4--3--3--3-|



GTL
-------------------------------------------------------------------------|
-------------------------------------------------------^-----------------|
------1-----------------1-----------------1-----1-----1-3-1--------------|
------1-----------------1-----------------1-----1-----1-3-1--------------|
-------------------------------------------------------------------------|
-1-3----3---3---3--1-3-----3---3---3--1-3---3-3---3-3-------3--3--3--1-3-|


GTR
--------------------------------------------------------------------------|
--------------------------------------------------------------------------|
--------------------------------------------------------------------------|
--------------------------------------------------------------------------|
--------------------------------------------------------------------------|
-1-3-4--3---3---3--1-3--4--3---3---3--1-3-4-3-3-4-3-3-4/6-4--3--3--3--1-3-|







0:34

----------------------------------------------|
----------------------------------------------|
--------7---6------------9------10----9-------|
--------7---7-----------10------10---10-------|
-7-------------7-5-7/10-----------------------|
-5--------------------------------------8-5---|
               * *                      * *


-----------------------------------------------------------|
-----------------------------------------------------------|
--------7---6------------9------10----9---5----------------|
--------7---7-----------10------10---10---7--6-------6-5-4-|
-7-------------7-5-7/10----------------------4-------4-3-2-|
-5---------------------------------------------------------|
               * *                 




0:48

                _____
---)-----------/     \----/\--------------------------|
-14----------13-14-13---131413-15~----/15-13----------|
-14----12~~~----------15-----------12--------15~~~----|
------------------------------------------------------|
------------------------------------------------------|
------------------------------------------------------|


0:54

  ___________~~~             ~~~                        _____
--)--|---|---|---15--15------)-------------------------/     \------------|
18--18--18--18-----18--18-18----18-15--15-15-13---13-13-14-13----13-15----|
-------------------------------------17--------15-------------15------15~\|
--------------------------------------------------------------------------|
--------------------------------------------------------------------------|
--------------------------------------------------------------------------|





GTL
--------------------------------------------------------------------|
-------------------------------------------------------^------------|
------1-----------------1-----------------1-----1-----1-3-1---------|
------1-----------------1-----------------1-----1-----1-3-1---------|
--------------------------------------------------------------------|
--------3---3---3--1-3-----3---3---3--1-3---3-3---3-3-------3--3--3-|


GTR
---------------------------------------------------------------------|
---------------------------------------------------------------------|
---------------------------------------------------------------------|
---------------------------------------------------------------------|
---------------------------------------------------------------------|
-----4--3---3---3--1-3--4--3---3---3--1-3-4-3-3-4-3-3-4/6-4--3--3--3-|


GTL
--------------------------------------------------------------------|
-------------------------------------------------------^------------|
------1-----------------1-----------------1-----1-----1-3-1---------|
------1-----------------1-----------------1-----1-----1-3-1---------|
--------------------------------------------------------------------|
-1-3----3---3---3--1-3-----3---3---3--1-3---3-3---3-3-------3--3--3-|


GTR
---------------------------------------------------------------------|
---------------------------------------------------------------------|
---------------------------------------------------------------------|
---------------------------------------------------------------------|
---------------------------------------------------------------------|
-1-3-4--3---3---3--1-3--4--3---3---3--1-3-4-3-3-4-3-3-4/6-4--3--3--3-|




GTL
--------------------------------------------------------------------|
-------------------------------------------------------^------------|
------1-----------------1-----------------1-----1-----1-3-1---------|
------1-----------------1-----------------1-----1-----1-3-1---------|
--------------------------------------------------------------------|
-1-3----3---3---3--1-3-----3---3---3--1-3---3-3---3-3-------3--3--3-|


GTR
---------------------------------------------------------------------|
---------------------------------------------------------------------|
---------------------------------------------------------------------|
---------------------------------------------------------------------|
---------------------------------------------------------------------|
-1-3-4--3---3---3--1-3--4--3---3---3--1-3-4-3-3-4-3-3-4/6-4--3--3--3-|




GTL
------------------------------------------------------------------------|
-------------------------------------------------------^----------------|
------1-----------------1-----------------1-----1-----1-3-1-------------|
------1-----------------1-----------------1-----1-----1-3-1-------------|
------------------------------------------------------------------------|
-1-3----3---3---3--1-3-----3---3---3--1-3---3-3---3-3-------3--3--3--1-3|


GTR
-------------------------------------------------------------------------|
-------------------------------------------------------------------------|
-------------------------------------------------------------------------|
-------------------------------------------------------------------------|
-------------------------------------------------------------------------|
-1-3-4--3---3---3--1-3--4--3---3---3--1-3-4-3-3-4-3-3-4/6-4--3--3--3--1-3|








----------------------------------------------|
----------------------------------------------|
--------7---6------------9------10----9-------|
--------7---7-----------10------10---10-------|
-7-------------7-5-7/10-----------------------|
-5---------------------------------------8-5--|
               * *                       * *


-----------------------------------------------------------|
-----------------------------------------------------------|
--------7---6------------9------10----9---5----------------|
--------7---7-----------10------10---10---7--6-------6-5-4-|
-7-------------7-5-7/10----------------------4-------4-3-2-|
-5---55----------------------------------------------------|
     **        * *                 




1:36


----------------------------------------------------|
----------------------------------------------------|
-------------6--------------------------------------|
-----4---5---4---5--4-------------------------------|
-4---2---3-------3--2--------5-----------------5-7--|
-2---------------------2-2-2-3---2-2-2-2-2-2-2-3-5--|
                       * * *     * * * * * * *

----------------------------------------------------|
----------------------------------------------------|
-------------6--------------------------------------|
-----4---5---4---5--4-------------------------------|
-4---2---3-------3--2--------5-----------------5-7--|
-2---------------------2-2-2-3---2-2-2-2-2-2-2-3-5--|
                       * * *     * * * * * * *

----------------------------------------------------|
----------------------------------------------------|
-------------6--------------------------------------|
-----4---5---4---5--4-------------------------------|
-4---2---3-------3--2--------5-----------------5-7--|
-2---------------------2-2-2-3---2-2-2-2-2-2-2-3-5--|
                       * * *     * * * * * * *

----------------------------------------------------|
----------------------------------------------------|
-------------6--------------------------------------|
-----4---5---4---5--4-------------------------------|
-4---2---3-------3--2--------5-----------------5-7--|
-2---------------------2-2-2-3---2-2-2-2-2-2-2-3-5--|
                       * * *     * * * * * * *






1:58

--------------------------------------------------------|
--------------------------------------------------------|
--------------------------------------------------------|
-------------------------9-9---9-9---9-9-9-9-9-9-9-11---|
-6---9---6---9---6---9---7-7---7-7---7-7-7-7-7-7-7-9----|
-4---7---4---7---4---7----------------------------------|


------------------------------------------------------------|
------------------------------------------------------------|
------------------------------------------------------------|
------------------------------------------------------------|
-6---9---6---9---6---9--11--11-11-11---11-11-11-9-9---9-11--|
-4---7---4---7---4---7---9---9--9--9----9--9--9-7-7---7-9---|



--------------------------------------------------------|
--------------------------------------------------------|
--------------------------------------------------------|
-------------------------9-9---9-9---9-9-9-9-9-9-9-11---|
-6---9---6---9---6---9---7-7---7-7---7-7-7-7-7-7-7-9----|
-4---7---4---7---4---7----------------------------------|


------------------------------------------------------------|
------------------------------------------------------------|
------------------------------------------------------------|
------------------------------------------------------------|
-6---9---6---9---6---9--11--11-11-11---11-11-11-9-9---9-8---|
-4---7---4---7---4---7---9---9--9--9----9--9--9-7-7---7-6---|






2:20


---)~~~~~-------8--8----------)~~~-----)--(--------------------|
-10--------8/10---10~~~~----10--------4------------------------|
-11-------------------------11--------6-----------3------------|
---------------------------------------------3-5----5~~~~------|
---------------------------------------------------------------|
---------------------------------------------------------------|



2:32

-----------------------------------______------____------___--------------|
----------------------------------/      \----/    \----/   \-----6-------|
-------------------------3---5---5-6-5-------5-6-5-----5-6-5----5-7-------|
-----------------3---5-----5---5-------8-7-5-------8-5-------8------8-5~~-|
---------3---3-5---5---5--------------------------------------------------|
-3-3-6-3---6--------------------------------------------------------------|



2:38

-------_--------------------------------___------------------------|
--)---|-^-------------)^---------------/   \-----------------------|
-9----9--7---9-9~~~~-9--7-5-7-----5---5-6-5---5-7------------------|
------------------------------8-5---8-------8-----8-------8--------|
----------------------------------------------------10-10---10~~~--|
-------------------------------------------------------------------|







GTL
--------------------------------------------------------------------|
-------------------------------------------------------^------------|
------1-----------------1-----------------1-----1-----1-3-1---------|
------1-----------------1-----------------1-----1-----1-3-1---------|
--------------------------------------------------------------------|
--------3---3---3--1-3-----3---3---3--1-3---3-3---3-3-------3--3--3-|


GTR
---------------------------------------------------------------------|
---------------------------------------------------------------------|
---------------------------------------------------------------------|
---------------------------------------------------------------------|
---------------------------------------------------------------------|
-----4--3---3---3--1-3--4--3---3---3--1-3-4-3-3-4-3-3-4/6-4--3--3--3-|


GTL
--------------------------------------------------------------------|
-------------------------------------------------------^------------|
------1-----------------1-----------------1-----1-----1-3-1---------|
------1-----------------1-----------------1-----1-----1-3-1---------|
--------------------------------------------------------------------|
-1-3----3---3---3--1-3-----3---3---3--1-3---3-3---3-3-------3--3--3-|


GTR
---------------------------------------------------------------------|
---------------------------------------------------------------------|
---------------------------------------------------------------------|
---------------------------------------------------------------------|
---------------------------------------------------------------------|
-1-3-4--3---3---3--1-3--4--3---3---3--1-3-4-3-3-4-3-3-4/6-4--3--3--3-|




GTL
--------------------------------------------------------------------|
-------------------------------------------------------^------------|
------1-----------------1-----------------1-----1-----1-3-1---------|
------1-----------------1-----------------1-----1-----1-3-1---------|
--------------------------------------------------------------------|
-1-3----3---3---3--1-3-----3---3---3--1-3---3-3---3-3-------3--3--3-|


GTR
---------------------------------------------------------------------|
---------------------------------------------------------------------|
---------------------------------------------------------------------|
---------------------------------------------------------------------|
---------------------------------------------------------------------|
-1-3-4--3---3---3--1-3--4--3---3---3--1-3-4-3-3-4-3-3-4/6-4--3--3--3-|




GTL
--------------------------------------------------------------------|
-------------------------------------------------------^------------|
------1-----------------1-----------------1-----1-----1-3-1---------|
------1-----------------1-----------------1-----1-----1-3-1---------|
--------------------------------------------------------------------|
-1-3----3---3---3--1-3-----3---3---3--1-3---3-3---3-3-------3--3--3-|


GTR
---------------------------------------------------------------------|
---------------------------------------------------------------------|
---------------------------------------------------------------------|
---------------------------------------------------------------------|
---------------------------------------------------------------------|
-1-3-4--3---3---3--1-3--4--3---3---3--1-3-4-3-3-4-3-3-4/6-4--3--3--3-|




GTL
-------------------------------------------------------------------------|
-------------------------------------------------------^-----------------|
------1-----------------1-----------------1-----1-----1-3-1--------------|
------1-----------------1-----------------1-----1-----1-3-1--------------|
-------------------------------------------------------------------------|
-1-3----3---3---3--1-3-----3---3---3--1-3---3-3---3-3-------3--3--3--1-3-|


GTR
--------------------------------------------------------------------------|
--------------------------------------------------------------------------|
--------------------------------------------------------------------------|
--------------------------------------------------------------------------|
--------------------------------------------------------------------------|
-1-3-4--3---3---3--1-3--4--3---3---3--1-3-4-3-3-4-3-3-4/6-4--3--3--3--1-3-|





----------------------------------------------|
----------------------------------------------|
--------7---6------------9------10----9-------|
--------7---7-----------10------10---10-------|
-7-------------7-5-7/10-----------------------|
-5---55---------------------------------8-5---|
               * *                      * *


-----------------------------------------------------------|
-----------------------------------------------------------|
--------7---6------------9------10----9--5-----------------|
--------7---7-----------10------10---10--7---6-------6-5-4-|
-7-------------7-5-7/10----------------------4-------4-3-2-|
-5---------------------------------------------------------|
               * *                 



----------------------------------------------------|
----------------------------------------------------|
-------------6--------------------------------------|
-----4---5---4---5--4-------------------------------|
-4---2---3-------3--2--------5-----------------5-7--|
-2---------------------2-2-2-3---2-2-2-2-2-2-2-3-5--|
                       * * *     * * * * * * *

----------------------------------------------------|
----------------------------------------------------|
-------------6--------------------------------------|
-----4---5---4---5--4-------------------------------|
-4---2---3-------3--2--------5-----------------5-7--|
-2---------------------2-2-2-3---2-2-2-2-2-2-2-3-5--|
                       * * *     * * * * * * *

----------------------------------------------------|
----------------------------------------------------|
-------------6--------------------------------------|
-----4---5---4---5--4-------------------------------|
-4---2---3-------3--2--------5-----------------5-7--|
-2---------------------2-2-2-3---2-2-2-2-2-2-2-3-5--|
                       * * *     * * * * * * *

-----------------------|
-----------------------|
-------------6---------|
-----4---5---4---5--4--|
-4---2---3-------3--2--|
-2---------------------|
comments
print report bad tab
4 comments total. Showing first comments.
0 reply
gombk666 wrote on June 26 2013, 01:17 pm

Great job man!!!!

0 reply
doobiedan wrote on September 8 2013, 12:40 am

This TAB is amazing. Superb effort.

0 reply
binadra1234 wrote on December 8 2013, 01:02 pm

I've got only one question - How bends are marked?Is it somthing like that ) ?

I want to post or [tab]
guest
You may want to rate the tab now too:
select rating
Please do not post tabs as comments. Select "correction" instead!