Oops, an error
Loading. Please wait.

Black Sabbath Tab

ver4
ver4

Album

Solo

Whole song

Interactive

More versions @911Tabs.com
6,820 views 9 this week
no commentswrite comment
1 2 3 4 5
worth learning
x 3
Autoscroll
+/-
esc
set tempo
stop
Contributor
Hey! There's an official Ultimate Guitar app which is ideal
for learning songs when you're away from computer. Get the app
WARNING: You are trying to view
                                    content from Ultimate-Guitar.com
                                    in an unauthorized application,
                                    which is prohibited.

                                    Please use an official Ultimate
                                    Guitar Tabs application for iPhone,
                                    iPad or Android to access legitimate
                                    chords, guitar, bass, and drum tabs
                                    from Ultimate-Guitar.com database.

                                    Type "ultimate guitar tabs" in Apple
                                    App Store's or Android Market's
                                    search to find the application.
Transcribed by www.mikesguitarsite.co.ukWords and Music by Tony Iommi, John
Michael "Ozzy" Osbourne, Bill Ward & Terence "Geezer" ButlerGtr I (E A D G B E) - 'Tony
Iommi - Rhythm / Lead w/dist'
Gtr II (E A D G B E) - 'Tony Iommi - Rhythm w/dist & wah'

Intro
  Q=66
  $
 4/4
  Gtr I
                                            ~~
  H    H      H.        +E  E   H    H      H.      +E  E
|-----------|-----------------|-----------|----------------|
|-----------|-----------------|-----------|----------------|
|-----------|-----------------|-----------|----------------|
|-5----5----|-----------------|-5----5----|----------------|
|-5---------|-4tr5------(4)s0-|-5---------|-4-------(4)s8\-|
|-3---------|-----------------|-3---------|----------------|


                                               To Dbl. Coda
  H    H      H.        +S   S E   H    H      H.      Q
|-----------|--------------------|-----------|--------------|
|-----------|--------------------|-----------|--------------|
|-----------|--------------------|-----------|--------------|
|-5----5----|--------------------|-5----5----|--------------|
|-5---------|-4tr5------(4)s12s0-|-5---------|-4------------|
|-3---------|--------------------|-3---------|--------------|


                                     To Coda
              ~                      ~
  H    H      W          H    H      W
|-----------|----------|-----------|---------||
|-----------|----------|-----------|---------||
|-----------|----------|-----------|---------||
|------5----|----------|------5----|---------||
|-----------|-4--------|-----------|-4-------||
|-3---------|----------|-3---------|---------||


   Verse 1
                                      1.,2.,3.      4.
                                                 D.C. al Coda
    H    H      W          H    H      W             W
||------------|----------|-----------|-----------||-----------||
||o-----------|----------|-----------|----------o||-----------||
||------------|----------|-----------|-----------||-----------||
||-------5----|----------|------5----|-----------||-----------||
||o-----------|-4--------|-----------|-4--------o||--4--------||
||--3---------|----------|-3---------|-----------||-----------||


   Verse 2
                                      1.,2.,3.      4.
    &                                                  D.S. al Dbl. Coda
                                                              <
    H    H      W          H    H      W             H.      +E  +E
||------------|----------|-----------|-----------||----------------------||
||o-----------|----------|-----------|----------o||----------------------||
||------------|----------|-----------|-----------||----------------------||
||-------5----|----------|------5----|-----------||----------------------||
||o-----------|-4--------|-----------|-4--------o||--4-------(4)-(4)-----||
||--3---------|----------|-3---------|-----------||----------------------||


           Faster Q=124(8=s8)
  &&
               PM----------------------------------------------|
               |-3-| |-3-| |-3-| |-3-|   |-3-| |-3-| |-3-| |-3-|
  W            E E E E E E E E E E E E   E E E E E E E E E E E E
|----------||--------------------------|--------------------------||
|----------||o-------------------------|-------------------------o||
|----------||--------------------------|--------------------------||
|-5--------||--------------------------|--------------------------||
|-5--------||o---------3-5-6-3-5---3-5-|---------3-5-6-3-5---3-5-o||
|-3--------||--3-3-3-6-----------6-----|-3-3-3-6-----------6------||
            |-Rhy Fig 1                             end Rhy Fig 1-|

   Bridge
	 Rhy Fig 1 x3
	 Rhy Fig 1 (1st 3 bars)


  Gtr I
  PM----------------------|
  |-3-| |-3-| |-3-| |--3--|
  E E E E E E E E E E E   E   W
|---------------------------|---------------|
|---------------------------|---------------|
|---------------------------|---------------|
|---------------------------|-5-------------|
|---------3-5-6-3-5-5-5---5-|-5-------------|
|-3-3-3-6-----------3-3---3-|-3-------------|
|
| Gtr II
| H           Q     E   E     H.      +E  E
|---------------------------|---------------|
|---------------------------|---------------|
|---------------------------|---------------|
|-----------------------5---|-5-------(5)-5-|
|-----------------------5---|-5-------(5)-5-|
|-----------------------3---|-3-------(3)-3-|
                            |-Rhy Fig 2

                                     |-3-|
  W               W          H.      E E E
|---------------|----------|---------------||
|-3-------------|----------|-3-------------||
|-3-------------|----------|-3-------------||
|-3-------------|-5--------|-3-------5-3---||
|---------------|-5--------|-------------5-||
|---------------|-3--------|---------------||
|
| H.      +E  E   W          W
|---------------|----------|---------------||
|-3-------(3)-3-|----------|-3-------------||
|-3-------(3)-3-|----------|-3-------------||
|-3-------(3)-3-|-5--------|-3-------------||
|---------------|-5--------|---------------||
|---------------|-3--------|---------------||
                             end Rhy Fig 2-|

 Guitar Solo
 w/Rhy Fig 2 x5
  ~~                     ~~~
  H.       E  E   H     +E  E  Q
|---------------|-------------------|
|---------------|-------------------|
|---------[3]---|-------------------|
|-5-----------5-|-3-----(3)-3h=5----|
|---------------|-------------------|
|---------------|-------------------|


  ~~                         ~~~~
  H.      a     Q      a     Q.   +E  a     Q    Q
|--------------------|---------------------------3--|
|---------------3----|-------3--------------3----3--|
|-3-------5b7==(5)r--|-5b7==(5)r==(5)-5b7==(5)r-----|
|--------------------|------------------------------|
|--------------------|------------------------------|
|--------------------|------------------------------|


                                                                |--3--|
  a     Q    a      Q     a       Q     a      +Q       +Q      E  E  E  a      +Q     Q
|----------------------------------------------------|---------------15---------------------|
|-------3-----------6-------------8------------------|------------15----18b20==(18)r---x----|
|-5b7==(5)r--8b10==(8)r--10b12==(10)r--12b14==(12)---|-(12)r--/18----------------------x----|
|----------------------------------------------------|--------------------------------------|
|----------------------------------------------------|--------------------------------------|
|----------------------------------------------------|--------------------------------------|


                       ~~~~~
                                                                       |--3--|  |--3--|
   a     +Q     a     +Q     +E   E  a     +Q      a     +Q    +E   e  E  E  E  E  E  e
|-----------------------------------18b20=(18)r-|-18b20=(18)r=(18)-15-18p15----18p15-----|
|-18b20=(18)r--18b20=(18)r--(18)-15-------------|---------------------------18-------18--|
|-----------------------------------------------|----------------------------------------|
|-----------------------------------------------|----------------------------------------|
|-----------------------------------------------|----------------------------------------|
|-----------------------------------------------|----------------------------------------|


                                              ~~~~~
                 |--3--|     |--3--|
   a      +Q     S  S  S  E  E  E  E  a      +Q
|-18b20==(18)r--15h18p15-------15-15----------------|
|------------------------18-18-------18b20==(18)r---|
|---------------------------------------------------|
|---------------------------------------------------|
|---------------------------------------------------|
|---------------------------------------------------|


  |--3---|  |----3-----|  |----3-----|  |-----3------|
  E   E  E  E       E  E  E       E  E  E       E    E
|-15-------------------15------------15--------------15-|
|-----18-15---------15------------15------------15------|
|-----------17b17.5-------17b17.5-------17b17.5---------|
|-------------------------------------------------------|
|-------------------------------------------------------|
|-------------------------------------------------------|


   |----3-----|  |----3-----|  |----3-----|  |----3-----|                |----3-----|  |--3--|
   E       E  E  E       E  E  E       E  E  E       E  E    a     +H    E       E  E  E  E  E
|------------15------------15------------15------------15-|------------------------15----------|
|---------15------------15------------15------------15----|---------------------15-------15-15-|
|-17b17.5-------17b17.5-------17b17.5-------17b17.5-------|-17b19=(17)r-17b17.5-------17-------|
|---------------------------------------------------------|------------------------------------|
|---------------------------------------------------------|------------------------------------|
|---------------------------------------------------------|------------------------------------|



                             |-3--|
   a     +E   +E   E  E     +E   +Q   E   a     +E
|----------------------------------------18b20=(18)-|
|-18b20=(18)r(18)----18b20=(18)r(18)----------------|
|-----------------15-----------------15-------------|
|---------------------------------------------------|
|---------------------------------------------------|
|---------------------------------------------------|

             |--3--|                  |--3---|
   +E   +E   S  S  S  e  a     +Q     S   S  S  E
|-(18)r(18)-15h18p15----18b20=(18)r--15h=18p15----|
|--------------------18------------------------18-|
|-------------------------------------------------|
|-------------------------------------------------|
|-------------------------------------------------|
|-------------------------------------------------|


               |--3--|
   S  S  S  S  E  E  E  H           H         a      +Q     a      +Q
|-15h18p15----18p15----15tr18----|-15tr18----18b20==(18)r--18b20==(18)r----|
|----------18-------18-----------|-----------------------------------------|
|--------------------------------|-----------------------------------------|
|--------------------------------|-----------------------------------------|
|--------------------------------|-----------------------------------------|
|--------------------------------|-----------------------------------------|


                                           ~~~                            ~~
   |--3--|          |-3-|   |--3--|                |----3-----|  |--3--|      |---3----|
   E  E  E  a      +E   Q   E  E  E        Q       E       E  E  E  E  E  Q   E   E    E
|-18p15----------------15-----------------------|------------15--------------------------|
|-------18-18b20==(18)-18r-18p15----------------|---------15----18p15--------------------|
|--------------------------------17pb17.5-15----|-17b17.5-------------17-15--------------|
|-----------------------------------------------|----------------------------17p=15---17-|
|-----------------------------------------------|----------------------------------------|
|-----------------------------------------------|----------------------------------------|


   |--3--|
   E  E  E  a      E    E  a      E    E  a      E    E    a     +Q    a     +Q   Q    E E
|----------------------15-------------15----------------|-----------------------------------||
|-----------------15---15--------15---15--------15---18-|-18b20=(18)r-18b20=(18)-18r\-------||
|-------15-17b19=(17)r----17b19=(17)r----17b19=(17)r----|-----------------------------------||
|-15h17-------------------------------------------------|-----------------------------------||
|-------------------------------------------------------|--------------------------------5--||
|-------------------------------------------------------|--------------------------------3--||


   Outro
                   1.,2.              3.
                                                    |-3-|    |-3-|
    H.      +E  E   H.      +E  E     W          q  E E E q  E E E
||----------------|----------------||----------|----------------------|
||o---------------|-3-------(3)---o||-3--------|----------------------|
||----------------|-3-------(3)----||-3--------|----------------------|
||--5-------(5)---|-3-------(3)----||-3--------|-5--5-5-5-5--5-5-5----|
||o-5-------(5)---|-3-------(3)-5-o||-3--------|-5--5-5-5-5--5-5-5----|
||--3-------(3)-3-|-------------3--||----------|-3--3-3-3-3--3-3-3----|
|
|                                                   |-3-|    |-3-|
|   H.      +E  E   H.      +E  E     W          q  E E E q  E E E
||----------------|----------------||----------|----------------------|
||o---------------|-3-------(3)-3-o||-3--------|----------------------|
||----------------|-3-------(3)-3--||-3--------|----------------------|
||--5-------(5)-5-|-3-------(3)-3--||-3--------|-5--5-5-5-5--5-5-5----|
||o-5-------(5)-3-|---------------o||----------|-5--5-5-5-5--5-5-5----|
||--3-------(3)-3-|----------------||----------|-3--3-3-3-3--3-3-3----|


  Gtrs I, II
     |-3-|    |-3-|                |-3-|
  q  E E E q  E E E   q  Q  H      E E E q  H
|-------------------|------------|---------------*|
|-3--3-3-3-3--3-3-3-|------------|---------------*|
|-3--3-3-3-3--3-3-3-|------------|---------------*|
|-3--3-3-3-3--3-3-3-|-5----------|-5-5-5-5-------*|
|-------------------|-5----------|-5-5-5-5-------*|
|-------------------|-3----------|-3-3-3-3-------*|
comments
We did not receive enough feedback on this tab! Please rate:
print report bad tab
1 2 3 4 5
I want to post or [tab]
guest
You may want to rate the tab now too:
select rating
Please do not post tabs as comments. Select "correction" instead!