Oops, an error
Loading. Please wait.

Fairies Wear Boots Tab

ver3
ver3

Solo

Whole song

More versions @911Tabs.com
22,018 views 78 this week
2 commentsread comments
1 2 3 4 5
excellent!
x 8
Autoscroll
+/-
esc
set tempo
stop
Contributor
Hey! There's an official Ultimate Guitar app which is ideal
for learning songs when you're away from computer. Get the app
WARNING: You are trying to view
                                    content from Ultimate-Guitar.com
                                    in an unauthorized application,
                                    which is prohibited.

                                    Please use an official Ultimate
                                    Guitar Tabs application for iPhone,
                                    iPad or Android to access legitimate
                                    chords, guitar, bass, and drum tabs
                                    from Ultimate-Guitar.com database.

                                    Type "ultimate guitar tabs" in Apple
                                    App Store's or Android Market's
                                    search to find the application.
                     FAIRIES WEAR BOOTS (JACK THE STRIPPER)
                          As recorded by Black Sabbath
                         (From the 1970 Album PARANOID)

Words and Music by Frank Iommi, John Osbourne, William Ward & Terence Butler
Transcribed by www.mikesguitarsite.co.uk

 Jack The Stripper
  Q=76
 4/4
  Gtr I
|-------------------------------|-------------------------------||
|-------------------------------|-------------------------------||
|-------3---------3-------------|-------3---------3-------------||
|-----3---5-5---3---5-(5)-5-3h5-|-----3---5-5---3---5-(5)-5-3h5-||
|---5---------5-----------------|---5---------5-----------------||
|-3-----------------------------|-3-----------------------------||


  Gtrs I, II
|-------------------------------|-------------------------------|
|-------------------------------|-------------------------------|
|-------3---------3-------------|-------3---------3-------------|
|-----3---5-5---3---5-(5)-5-3h5-|-----3---5-5---3---5-(5)-5-3---|
|---5---------5-----------------|---5---------5-----------------|
|-3-----------------------------|-3-----------------------------|


  $
                         ~~~~~~~~
|--------------------------|----------------------------|
|---1-1p0---0--------------|-----1-1p0---0--------------|
|-2-------2----2p0-0h2-0h2-|-(2)-------2----2p0-0h2-0h2-|
|--------------------------|----------------------------|
|--------------------------|----------------------------|
|--------------------------|----------------------------|


                           ~
|----------------------------|----------------------------||
|-------1p0---0--------------|-1p0---1p0---1p0---1p0-0----||
|-----0-----2----2p0-0h2-0h2-|-----2-----2-----2-------2s=||
|-0h2------------------------|----------------------------||
|----------------------------|----------------------------||
|----------------------------|----------------------------||


|---7-10s15s7-7-5-5s7-7-|-----10-----12-----7-----5-(5)s7-|
|-----------------------|---------------------------------|
|-4-4--7s12s4-4-2-2s4---|-4s7----7s9----9s4---4s2----2s=4-|
|-----------------------|---------------------------------|
|-----------------------|---------------------------------|
|-----------------------|---------------------------------|


|-7-10-10s15s7-7-5-5s7--|-7-10-(10)-12-(12)-12s15-12s10---||
|-----------------------|---------------------------------||
|-4--7--7s12s4-4-2-2s4--|-4--7--(7)--9--(9)--9s12--9s=7---||
|-----------------------|---------------------------------||
|-----------------------|---------------------------------||
|-----------------------|-------------------------------0-||


                                                 To Coda
|------------------|------------------|------------------|
|------------------|------------------|------------------|
|-9-7-(7)-(7)\-----|------------------|-9-7-(7)-(7)\-----|
|-9-7-(7)-(7)\-----|-9-7-(7)-(7)\-----|-9-7-(7)-(7)\-----|
|-7-5-(5)-(5)\-----|-9-7-(7)-(7)\-----|-7-5-(5)-(5)\-----|
|------------------|-7-5-(5)-(5)\-----|------------------|


                                                   ~~~~~~
|----------------------||--------------------9----------------|
|----------------------||------------------9---12-12b14r=(12)-|
|----------------------||----------9-11b13--------------------|
|-9-7-(7)-(7)\----9-10-||-11--9h11----------------------------|
|-9-7-(7)-(7)\----9-10-||-11----------------------------------|
|-7-5-(5)-(5)\----7--8-||--9----------------------------------|


              ~~~~~~
|------12b14-12b14r(12)-12-9------9--------|
|-12-9-----------------------9-12---12-9-9-|
|------------------------------------------|
|------------------------------------------|
|------------------------------------------|
|------------------------------------------|


                              ~~~~~
|---------9--------------------------------9--------|
|-------9---12---------------------------9---9-12-9-|
|-11b13--------11b13-11b13==(11)r(11)-11------------|
|---------------------------------------------------|
|---------------------------------------------------|
|---------------------------------------------------|


                                              ~
|--------------------------------9---------------||------------------|
|------------------------------9---12-9----------||------------------|
|-11b13r(11)p9-11p9----9-11b13----------11b13-9--||-9-7-(7)-(7)\-----|
|-------------------11---------------------------||-9-7-(7)-(7)\-----|
|------------------------------------------------||-7-5-(5)-(5)\-----|
|------------------------------------------------||------------------|


|------------------|------------------|------------------||
|------------------|------------------|------------------||
|------------------|-9-7-(7)-(7)\-----|------------------||
|-9-7-(7)-(7)\-----|-9-7-(7)-(7)\-----|-9-7-(7)-(7)\-----||
|-9-7-(7)-(7)\-----|-7-5-(5)-(5)\-----|-9-7-(7)-(7)\-----||
|-7-5-(5)-(5)\-----|------------------|-7-5-(5)-(5)\-----||


 Fairies Wear Boots
  Q=124(8=s8)
|---------3----|----------3----|----------3----|
|---------3----|----------3----|----------3----|
|---------3----|----------3----|----------3----|
|---------3----|----------3----|----------3----|
|-5--8--5----3-|-5-5-8--5----3-|-5-5-8--5----3-|
|-3--6--3----1-|-3-3-6--3----1-|-3-3-6--3----1-|


                    PM----------------------------|
|----------3----||-----------------|-----------------||
|----------3----||o----------------|----------------o||
|----------3----||-----------------|-----------------||
|----------3----||------------3----|-----------3-----||
|-5-5-8--5------||o-5-5-8---5-3----|-5-5-8---5-3----o||
|-3-3-6--3----3-||--3-3-6-0-3-3--3-|-3-3-6-0-3-3--3--||


   Verse 1
    PM----------------------------|
                                     8x
||-----------------|-----------------||
||o----------------|----------------o||
||-----------------|-----------------||
||------------3----|-----------3-----||
||o-5-5-8---5-3----|-5-5-8---5-3----o||
||--3-3-6-0-3-3--3-|-3-3-6-0-3-3--3--||


                                  4x
||----------3----|----------3-----||
||o---------3----|----------3----o||
||----------3----|----------3-----||
||----------3----|----------3-----||
||o-5--8--5----3-|-5-5-8--5----3-o||
||--3--6--3----1-|-3-3-6--3----1--||


   Chorus
                                  8x
||----------3----|----------3-----||
||o---------3----|----------3----o||
||----------3----|----------3-----||
||----------3----|----------3-----||
||o-5--8--5----3-|-5-5-8--5----3-o||
||--3--6--3----1-|-3-3-6--3----1--||


 Guitar Solo
         ~~~~~~~~~~~~~
|---------------|----------------|-------------------|--------|
|---------------|----------------|-------------------|--------|
|---------------|----------------|-------------------|--------|
|-3h5--3h5------|-(5)-------3----|-------------------|--------|
|---------------|-------3h5---5--|-------------------|--------|
|---------------|----------------|-3b5===(3)r=(3)----|-(3)----|


         ~~~~~~~~~~~~~
|---------------|----------------|-------------------|----------------|
|---------------|----------------|-------------------|-----------3----|
|---------------|----------------|-------------------|-----------5b7--|
|-3h5--3h5------|-(5)-------3----|-------------------|----------------|
|---------------|-------3h5---5--|-------------------|----------------|
|---------------|----------------|-3b5===(3)r=(3)----|-(3)------------|


|-------------------------|---------------------------|
|-(3)--6------8s===15---5-|-(5)--6------8s===15---3---|
|-(5)--8b10--10b12----5-3-|-(3)--8b10--10b12----5-5b7-|
|-------------------------|---------------------------|
|-------------------------|---------------------------|
|-------------------------|---------------------------|


|--------------------------|
|-(3)--6------8-----10-----|
|-(5)--8b10--10b12--12b14--|
|--------------------------|
|--------------------------|
|--------------------------|


|----------------15---------------|
|-(10)--------15----18b20--18b20--|
|-(12)--17b19---------------------|
|---------------------------------|
|---------------------------------|
|---------------------------------|


                 ~~~~~~~~             ~~~~~
|---------------------------18b20--|-18b20---15-18p15----18p15-----|
|-18b20--18b20r(18)-(18)-15--------|------------------18-------18--|
|----------------------------------|-------------------------------|
|----------------------------------|-------------------------------|
|----------------------------------|-------------------------------|
|----------------------------------|-------------------------------|


                                 ~~                         ~~
|-------------------15--------------|----------15------------------|
|-18p15----------15----18p15--------|-------15----18p15------------|
|-------17-17b19-------------17-15--|-17b19-------------17-15------|
|-----------------------------------|--------------------------\5--|
|-----------------------------------|------------------------------|
|-----------------------------------|------------------------------|


  Gtr I
|------------------|-------------------------------------|
|-3----------------|---------6\------------------------6-|
|-3b3.5---------3--|-5s7---7----\5---5---3-----5s7---7---|
|--------5p3-5-----|-------------------------------------|
|------------------|-------------------------------------|
|------------------|-------------------------------------|
|
| Gtr II
|------------------|---------3-------------------------3-|
|-3----------------|-------3-----6p3-----------------3---|
|-3b3.5---------3--|---5b7-------------5-3tr4----5b7-----|
|--------5p3-5-----|-------------------------------------|
|------------------|-------------------------------------|
|------------------|-------------------------------------|


|-----------------------------|--------------------------|
|----------------------6------|-------------6------------|
|-\5---5---3-----5s7-7---\5-5-|-3-----5s7-7---\5-3-5p3---|
|-----------------------------|------------------------5-|
|-----------------------------|--------------------------|
|-----------------------------|--------------------------|
|
|-----------------------------|--------------------------|
|--6p3-----------------6------|-------------6------------|
|--------5-3tr4--5s7-7----5-5-|-3tr4--5s7-7----5-3-5p3---|
|-----------------------------|------------------------5-|
|-----------------------------|--------------------------|
|-----------------------------|--------------------------|


    Gtrs I, II
           ~~~~~~~~~~~~~
||----------------|----------------|-------------------|---------||
||o---------------|----------------|-------------------|--------o||
||----------------|----------------|-------------------|---------||
||--3h5--3h5------|-(5)-------3----|-------------------|---------||
||o---------------|-------3h5---5--|-------------------|--------o||
||----------------|----------------|-3b5===(3)r=(3)----|-(3)-----||


                                        D.S. al Coda
    PM----------------------------------------------|
||--------------------------|--------------------------||
||o-------------------------|-------------------------o||
||--------------------------|--------------------------||
||--------------------------|--------------------------||
||o-------------------------|-------------------------o||
||--3-3-3-3-3-3-3-3-3-3-3-3-|-3-3-3-3-3-3-3-3-3-3-3-3--||


                      Fairies Wear Boots
                   Q=124(8=s8)
  &
|------------------||----------3----|----------3-----||
|------------------||o---------3----|----------3----o||
|------------------||----------3----|----------3-----||
|-9-7-(7)-(7)\-----||----------3----|----------3-----||
|-9-7-(7)-(7)\-----||o-5--8--5----3-|-5-5-8--5----3-o||
|-7-5-(5)-(5)\-----||--3--6--3----1-|-3-3-6--3----1--||


                                           Chorus
    PM--------------------------------------------------------------------|
                                                                              8x
||-----------------|-----------------||-||-----------------|------------------||
||o----------------|----------------o||-||o----------------|-----------------o||
||-----------------|-----------------||-||-----------------|------------------||
||------------3----|-----------3-----||-||------------3----|-----------3------||
||o-5-5-8---5-3----|-5-5-8---5-3----o||-||o-5-5-8---5-3----|-5-5-8---5-3-----o||
||--3-3-6-0-3-3--3-|-3-3-6-0-3-3--3--||-||--3-3-6-0-3-3--3-|-3-3-6-0-3-3--3---||


                                        Verse 2
                                                                        8x
||----------3----|----------3-----||-||----------3----|----------3------||
||o---------3----|----------3----o||-||o---------3----|----------3-----o||
||----------3----|----------3-----||-||----------3----|----------3------||
||----------3----|----------3-----||-||----------3----|----------3------||
||o-5--8--5----3-|-5-5-8--5----3-o||-||o-5--8--5----3-|-5-5-8--5----3--o||
||--3--6--3----1-|-3-3-6--3----1--||-||--3--6--3----1-|-3-3-6--3----1---||


 Outro
      ~~~~~~~~~~~~~
|------------|----------------|-------------------|--------|
|------------|----------------|-------------------|--------|
|-3----------|----------------|-------------------|--------|
|---5-5------|-(5)------------|-------------------|--------|
|------------|-------3h5-3h5--|-------------------|--------|
|------------|----------------|-3b5===(3)r=(3)----|-(3)----|


         ~~~~~~~~~~~~~
|---------------|----------------|-------------------|--------|
|---------------|----------------|-------------------|--------|
|---------------|----------------|-------------------|--------|
|-3h5--3h5------|-(5)-------3----|-------------------|--------|
|---------------|-------3h5---5--|-------------------|--------|
|---------------|----------------|-3b5===(3)r=(3)----|-(3)----|


                                                       4x
||--5-6---5-----5-6---5-----|-5-6---5-----5-6---5------||
||o-----8---6-8-----8---6-8-|-----8---6-8-----8---6-8-o||
||--------------------------|--------------------------||
||--------------------------|--------------------------||
||o-------------------------|-------------------------o||
||--------------------------|--------------------------||



***************************************************************************************
* Generated using Power Tab Editor by Brad Larsen - http://powertab.guitarnetwork.org *
***************************************************************************************
comments
print report bad tab
2 comments total.
+1 reply
xHellbound wrote on May 18 2008, 01:18 pm

Awesome, but Iommi plays this part in this position:


~~~~~~~~
|--------------------------|----------------------------|
|--------------------------|----------------------------|
|---5-5p4---4--------------|-----5-5p4---4--------------|
|-7-------7----7p5-5h7-5h7-|-(7)-------7----7p5-5h7-5h7-|
|--------------------------|----------------------------|
|--------------------------|----------------------------|

~
|----------------------------|----------------------------||
|----------------------------|----------------------------||
|-------5p4---4--------------|-5p4---5p4---5p4---5p4-4-2s=||
|-----5-----7----7p5-5h7-5h7-|-----7-----7-----7----------||
|-5h7------------------------|----------------------------||
|----------------------------|----------------------------||

0 reply
Broagan wrote on March 13 2010, 02:02 pm

this one any good?

I want to post or [tab]
guest
You may want to rate the tab now too:
select rating
Please do not post tabs as comments. Select "correction" instead!