Oops, an error
Loading. Please wait.

Headless Cross Live Bass Tab

617 views 3 this week
no commentswrite comment
1 2 3 4 5
accurate
x 1
add to favorites launch autoscroll
font size
0
reset
Autoscroll
+/-
esc
set tempo
stop
Contributor
Difficulty
Tuning
intermediate
D# G# C# F# A# D#
WARNING: You are trying to view
                                    content from Ultimate-Guitar.com
                                    in an unauthorized application,
                                    which is prohibited.

                                    Please use an official Ultimate
                                    Guitar Tabs application for iPhone,
                                    iPad or Android to access legitimate
                                    chords, guitar, bass, and drum tabs
                                    from Ultimate-Guitar.com database.

                                    Type "ultimate guitar tabs" in Apple
                                    App Store's or Android Market's
                                    search to find the application.
Title: Headless Cross (Live)
Artist: Black Sabbath
Album: Cross Purposes Live
Bassist: Geezer Butler
Composer: Tony Iommi, Tony Martin, Cozy Powell
Tabbed By: FLBatista


INTRO 1:

Gb|---------------------------------------------------------------------|
Db|---------------------------------------------------------------------|
Ab|---------------------------------------------------------------------|
Eb|-14\-0-0-2-0--0-0-0--0-0-0--0-0-0--0-0-0--0-0-0--0-0-0--0-0-0--0-0-0-|


Gb|-----------------------------------------------------------------------|
Db|---------------------------------------------------0-2-----------------|
Ab|-------------------------------------------0-2---2---------------------|
Eb|-0-0-0--0-0-0--0-0-0--0-0-0--0-0-0--0-0-0------0-------0--0-0-0--0-0-0-|


Gb|----------------------------------------------------------------------|
Db|----------------------------------------------------------------------|
Ab|----------------------------------------------------------------------|
Eb|-0-0-0--0-0-0--0-0-0--0-0-0--0-0-0--0-0-0--0-0-0--0-0-0--0-0-0--0-0-0-|


Gb|----------------------------|
Db|----------------------------|
Ab|------------7-7-7-7-7-9-7---|
Eb|-0-0-0--0-0---------------7-|


INTRO 2

Gb|-----------------------------------------------------------------|
Db|-----------------------------------------------------------------|
Ab|-4--4-4-4--4-4-4--4-4-4--4-4-4--4-4-4--4-4-4--4-4-4--2--4--4-4-4-|
Eb|-----------------------------------------------------------------|


Gb|-------------------------------------------------------------------|
Db|-------------------------------------------------------------------|
Ab|-4-4-4--4-4-4--4-4-4--4-4-4--4-4-4--4--4-2--4--4-4-4--4-4-4--4-4-4-|
Eb|-------------------------------------------------------------------|


Gb|------------------------------------------------------------|
Db|------------------------------------------------------------|
Ab|-4-4-4--4-4-4--4-4-4--4-4-4--2--4--4-4-4--4-4-4--4-4-4--4-4-|
Eb|------------------------------------------------------------|


Gb|---------------------|
Db|-2----4---------1----|
Ab|-----------2---------|
Eb|---------------------|


VERSO 1:

Gb|------------------------------------------------------------------|
Db|------------------------------------------------------------------|
Ab|-4--4-4-4--4-4-4--4-4-4--4-4-4--4-4-4--4-4-4--4-4-4--2-2-4--4-4-4-|
Eb|------------------------------------------------------------------|


Gb|---------------------------------------6---6----|
Db|-----------------------------------4-6---4---4--|
Ab|-4-4-4--4-4-4--4-4-4--4-4-4--4-4-4--------------|
Eb|------------------------------------------------|


Gb|------------------------------------------------------------------|
Db|------------------------------------------------------------------|
Ab|-4--4-4-4--4-4-4--4-4-4--4-4-4--4-4-4--4-4-4--4-4-4--2-2-4--4-4-4-|
Eb|------------------------------------------------------------------|


Gb|---------------------------------------6-6-4----|
Db|-----------------------------------4-6-------6--|
Ab|-4-4-4--4-4-4--4-4-4--4-4-4--4-4-4--------------|
Eb|------------------------------------------------|


Gb|------------------------------------------------------------------|
Db|------------------------------------------------------------------|
Ab|-4--4-4-4--4-4-4--4-4-4--4-4-4--4-4-4--4-4-4--4-4-4--2-2-4--4-4-4-|
Eb|------------------------------------------------------------------|


Gb|-------------------------------------------------|
Db|--------------------------------------------2-4--|
Ab|-4-4-4--4-4-4--4-4-4--4-4-4--4-4-4--2-0-2-4------|
Eb|-------------------------------------------------|


Gb|-----------------------------------------------------6-6----------|
Db|------------------------------------------------------------------|
Ab|-4--4-4-4--4-4-4--4-4-4--2-2-4--4-4-4--4-4-4--4-4-4------4--4-4-4-|
Eb|------------------------------------------------------------------|


Gb|-------------------6-6-6-6-6-6-6-6-6-4-------------|
Db|---------------------------------------6-4-2-4-2---|
Ab|-4-4-4--4-4-4--4-4-------------------------------4-|
Eb|---------------------------------------------------|


PRE CHORUS:

Gb|---------------------------------------------------------|
Db|---------------------------------------------------------|
Ab|---------------------------------------------------------|
Eb|-5--5-5-5--5-5-5--5-5-5--5-5-2--2-2-2--2-2-2--2-2-2--2-5-|


Gb|-----------------------------------/6-6-4-----------|
Db|------------------------------------------6-4---4-2-|
Ab|-4--4-4-4--4-4-4--4-4-4--4-4-4--4-4-----------6-----|
Eb|----------------------------------------------------|


Gb|---------------------------------------------------------|
Db|--------7------------------------------------------------|
Ab|---------------------------------------------------------|
Eb|-5--5-5----5-5-5--5-5-5--5-5-2--2-2-2--2-2-2--2-2-2--5-2-|


Gb|-----------------------------------------------------------|
Db|-----------------------------------------------------7--6--|
Ab|-------------------------------------------7-7-7--6--------|
Eb|-4--4-4-4--4-4-5--5-5-5--5-5-4--4-4-4--4-4-----------------|


CHORUS:

Gb|---------------------------------------------------------|
Db|---------------------------------------------------------|
Ab|-4--4-4-4--4-4-4--4-4-4--4-4-4--4-4-4--4-4-4--4-4-4--2-2-|
Eb|---------------------------------------------------------|


Gb|--------------------------------------------------------|
Db|--------------------------------------------------------|
Ab|-4--4-4-4--4-4-4--4-4-4--4-4-4--4-4-4--4-4-4--4-4-4-2---|
Eb|--------------------------------------------------------|


VERSE 3:

Gb|---------------------------------------------------------|
Db|---------------------------------------------------------|
Ab|-4--4-4-4--4-4-4--4-4-4--4-4-4--4-4-4--4-4-4--4-4-4--2-2-|
Eb|---------------------------------------------------------|


Gb|-----------------------------------------------------------|
Db|------------------------------------------------------2-4--|
Ab|-4--4-4-4--4-4-4--4-4-4--4-4-4--4-4-4--4-4-4--2-0-2-4------|
Eb|-----------------------------------------------------------|

Gb|-------------------------6-6--------------------------------|
Db|------------------------------------------------------------|
Ab|-4--4-4-4--4-4-4--4-4-4------4--4-4-4--4-4-4--4-4-4--2-2-4--|
Eb|------------------------------------------------------------|


Gb|--------------------------6-6-6-6-6-6-6-6-6-4-------------|
Db|----------------------------------------------6-4-2-4-2---|
Ab|-4-4-4--4-4-4--4-4-4--4-4-------------------------------4-|
Eb|----------------------------------------------------------|


PLAY:
PRE CHORUS


CHORUS 2:

Gb|---------------------------------------------------------|
Db|---------------------------------------------------------|
Ab|-4--4-4-4--4-4-4--4-4-4--4-4-4--4-4-4--4-4-4--4-4-4--2-2-|
Eb|---------------------------------------------------------|


Gb|---------------------------------------------------------|
Db|---------------------------------------------------------|
Ab|-4--4-4-4--4-4-4--4-4-4--4-4-4--4-4-4--4-4-4--4-4-4--2-2-|
Eb|---------------------------------------------------------|


INTERLUDE:

Gb|------------------------------------------------|X2
Db|----------4h-5--4-----------------4h-5--4--7--4-|
Ab|----6--7-----------7--5-----6--7----------------|
Eb|-0-----------------------0----------------------|


Gb|---------------------------------------------------------|
Db|---------------------------------------------------------|
Ab|-4--4-4-4--4-4-4--4-4-4--4-4-4--4-4-4--4-4-4--4-4-4--2-2-|
Eb|---------------------------------------------------------|


Gb|---------------------------------------------------------|
Db|---------------------------------------------------------|
Ab|-4--4-4-4--4-4-4--4-4-4--4-4-4--4-4-4--4-4-4--4-4-4--2-2-|
Eb|---------------------------------------------------------|


SOLO:

Gb|----------------------------------------------------------|
Db|-----------------------------------------------------2-2--|
Ab|----------------------------------------------------------|
Eb|-0--0-0-0--0-0-0--0-0-0--0-0-0--0-0-0--0-0-0--0-0-0-------|


Gb|----------------------------------------------------------------|
Db|--------------------------------------------------------2-------|
Ab|----------------------------------------------------0-2---0-2---|
Eb|-0--0-0-0--0-0-0--0-0-0--0-0-0--0-0-0--0-0-0--0-0-0-----------2-|


Gb|----------------------------------------------------------|
Db|-----------------------------------------------------2-2--|
Ab|----------------------------------------------------------|
Eb|-0--0-0-0--0-0-0--0-0-0--0-0-0--0-0-0--0-0-0--0-0-0-------|


Gb|------------------------------------------------------------|
Db|------------------------------------------------------------|
Ab|--------------------------------------------7-7-7-7-7-5-----|
Eb|-0--0-0-0--0-0-0--0-0-0--0-0-0--0-0-0--0-0--------------7-5-|

                                                         a
Gb|------------------------------------------------------4/6--4---|
Db|-------------------------------------------6b(8)-6-4---------6-|
Ab|-4--4-4-4--4-4-4--4-4-4--4-4-4--4-4-4--4-4---------------------|
Eb|---------------------------------------------------------------|
                                                         

Gb|---------------------------------------------------------|
Db|---------------------------------------------------------|
Ab|-4--4-4-4--4-4-4--4-4-4--4-4-4--4-4-4--4-4-4--4-4-4--2-2-|
Eb|---------------------------------------------------------|


Gb|---------------------------------------------------------|
Db|---------------------------------------------------------|
Ab|-4--4-4-4--4-4-4--4-4-4--4-4-4--4-4-4--4-4-4--4-4-4--2-2-|
Eb|---------------------------------------------------------|


Gb|------------------------------------------/6-6-6-6-6-4-----|
Db|-------------------------------------------------------6-4-|
Ab|-4--4-4-4--4-4-4--4-4-4--4-4-4--4-4-4--4-4-----------------|
Eb|-----------------------------------------------------------|


Gb|---------------------------------------------------------|
Db|---------------------------------------------------------|
Ab|-4--4-4-4--4-4-4--4-4-4--4-4-4--4-4-4--4-4-4--4-4-4--2-2-|
Eb|---------------------------------------------------------|

Gb|--------------------------------------------------6-6-4---|
Db|--------------------------------------------------------6-|
Ab|-4--4-4-4--4-4-4--4-4-4--4-4-4--4-4-4--4-4-4--4-4---------|
Eb|----------------------------------------------------------|


Gb|---------------------------------------------------------|
Db|---------------------------------------------------------|
Ab|-4--4-4-4--4-4-4--4-4-4--4-4-4--4-4-4--4-4-4--4-4-4--2-2-|
Eb|---------------------------------------------------------|


Gb|-----------------------------66666666666664-4---------|
Db|-------------------------------------------6-654-4----|
Ab|-4--4-4-4--4-4-4--4-4-4--4-4--------------------7-764-|
Eb|------------------------------------------------------|


PLAY:
PRE CHORUS


LAST CHORUS:


Gb|----------------------------------------------------------|
Db|----------------------------------------------------------|
Ab|-4--4-4-4--4-4-4--4-4-4--4-4-4--4-4-4--4-4-4--4-4-4--2-2--|
Eb|----------------------------------------------------------|


Gb|-----------------------------------------------------6-6--|
Db|----------------------------------------------------------|
Ab|-4--4-4-4--4-4-4--4-4-4--4-4-4--4-4-4--4-4-4--4-4-4-------|
Eb|----------------------------------------------------------|


Gb|----------------------------------------------------------|
Db|----------------------------------------------------------|
Ab|-4--4-4-4--4-4-4--4-4-4--4-4-4--4-4-4--4-4-4--4-4-4--2-2--|
Eb|----------------------------------------------------------|


Gb|--------------------------------------------------------|
Db|--------------------------------------------------------|
Ab|-4--4-4-4--4-4-4--4-4-4--4-4-4--4-4-4--4-4-4--4-4-4-2---|
Eb|--------------------------------------------------------|


Gb|----------------------------------------------------------|
Db|----------------------------------------------------------|
Ab|-4--4-4-4--4-4-4--4-4-4--4-4-4--4-4-4--4-4-4--4-4-4--2-2--|
Eb|----------------------------------------------------------|


Gb|----------------------------------------------------6---|
Db|--------------------------------------------------------|
Ab|-4--4-4-4--4-4-4--4-4-4--4-4-4--4-4-4--4-4-4--4-4-4-----|
Eb|--------------------------------------------------------|


Gb|----------------------------------------------------------|
Db|----------------------------------------------------------|
Ab|-4--4-4-4--4-4-4--4-4-4--4-4-4--4-4-4--4-4-4--4-4-4--2-2--|
Eb|----------------------------------------------------------|


Gb|-------------------------------------------------------------|
Db|-----------------------------2----4---------1----------------|
Ab|-4--4-4-4--4-4-4--4-4-4--4-4-----------2---------4~~~~~2~~~~-|
Eb|-------------------------------------------------------------|


LEG:

/ : Slide Up
\ : Slide Down
~ : Let Ring
b() : Bend
h : Hammer On
p : Pull Of
a : Apoggiatura
comments
We did not receive enough feedback on this tab! Please rate:
print report bad tab
1 2 3 4 5
I want to post or [tab]
guest
You may want to rate the tab now too:
select rating
Please do not post tabs as comments. Select "correction" instead!