Oops, an error
Loading. Please wait.

Heaven And Hell Live Tab

1,094 views 1 this week
no commentswrite comment
1 2 3 4 5
excellent!
x 1
Autoscroll
+/-
esc
set tempo
stop
Contributor
Difficulty
advanced
Hey! There's an official Ultimate Guitar app which is ideal
for learning songs when you're away from computer. Get the app
WARNING: You are trying to view
                                    content from Ultimate-Guitar.com
                                    in an unauthorized application,
                                    which is prohibited.

                                    Please use an official Ultimate
                                    Guitar Tabs application for iPhone,
                                    iPad or Android to access legitimate
                                    chords, guitar, bass, and drum tabs
                                    from Ultimate-Guitar.com database.

                                    Type "ultimate guitar tabs" in Apple
                                    App Store's or Android Market's
                                    search to find the application.
E5    F#5 G5\  C5   D5 D5  D5 D5  E5  F#5 G5/E5 G5\F#5 E5
------------------------------------------------------------|
------------------------------------------------------------|
-9----11-12\(7)--------------------9-----11-12/14--12\11-9--|
-9----11-12\(7)-10---12-12--12-12--9-----11-12/14--12\11-9--|
-7-----9-10-----10---12-12--12-12--7------9-10/12--10\-9-7--|
-0---------------8---10-10--10-10------------------------0--|

 E5    F#5 G5\  C5   D5 D5  D5 D5  E5  F#5 G5/E5 G5\F#5 E5       E5
----------------------------------------------------------------------|
----------------------------------------------------------------------|
-9----11-12\(7)--------------------9-----11-12/14--12\11-9---------9--|
-9----11-12\(7)-10---12-12--12-12--9-----11-12/14--12\11-9---------9--|
-7-----9-10-----10---12-12--12-12--7------9-10/12--10\-9-7-----5h7-7--|(Let ring)
-0---------------8---10-10--10-10---------------------------5h7----0--|
                                                                    Uhh, Yea
Do it like this, Hey!  Uhhh!  Yea!!  Turn to the snare drum.

                                                      (0.42)
--------------------------------------------------------------|
--------------------------------------------------------------|
-11h12p11h12--------------------------------------12p11-------|
------------14-12--14p12--12-14p12-----------12-14-----14~~---|
------------------------14--------14----12h14-----------------|
--------------------------------------------------------------|
                         Feel it.                   Hey
                                                                                  (.51)
----------------------------------------------------------------------------------------|
-(^15{17}`15)-(^15{17}`15)-15p12--------------------------------------------------------|
--------------------------------14-12-114~--14p12---------------------------------------|
-------------------------------------------------14-12-14~--14p12--12-------------------|
-----------------------------------------------------------------14--14p12h14-12\10-----|
------------------------------------------------------------------------------------12~-|
 We'd like you to sing just 3 words out, would you please?  The words "Heaven and Hell"
 And I'll do one for you first so you'll know exactly where it comes (in).

(Bass and Drums only)
 It's quite easy, but we need your love   power, ya gotta do it with a lot of strength.
 Here's the example.

 On and on, on and on it's Heaven and Hell, now that's the way you do it, here we go,
 On and on, on and on it's (audience) Heaven and Hell! (Dio) Yes, do it again!
 On and on, on and on it's (audience) Heaven and Hell! (Dio) Now on your own, a big one
 On and on, on and on it's (audience) Heaven and Hell! (Dio) Alright! Give yourselves

                     (1:20)
---------------------------------------------------|
---------------------------------------------------|
---------------------------------------------------|
-------5h7p5---------------------------------------|
------------7-5-7p5--------------------------------|
-------------------6-0-{Let ring}------------------|
a hand!     Fantastic, that was.  Alright!  Yeah!

(Bass and Drums only)
Now we,

Sing me a song, you're a singer, do me a wrong, you're a bringer of evil.
The Devil is never a maker.  The less that you give, you're a taker.  Remember!

  C#      C#   C#   E    E     (1:52)
--------------------------------------|
--------------------------------------|
--------------------------------------|
-11--(x)--11---11--12---12------------|
-11--(x)--11---11--12---12------------|
--9--(x)---9----9--10---10-(12/14\9)--|
It goes on and on, and on. It's Heaven and Hell!
                                                                               (2:04)
---------------------------------------------------------------------------------------|
---------------------12\(5)----------------------------------12\(5)--------------------|
---------------(x-x)-12\(5)----------------------------(x-x)-12\(5)--------------------|
---------------(x-x)-12\(5)------7~--5\\4--------------(x-x)-12\(5)------7~--5\4-------|
-(7-7)-7h10p7~-(x-x)--------7h10----------7~---7h10p7~-(x-x)--------7h10---------10-7--|
-------------------------------------------------------------------------------------0-|
                                                                (Let open E note ring)
                                                                               Ummmm
(Bass and Drums only)

 Not knowing you were going to be this fantastic, we didn't tell you the other suprise.
 Not only are we filming this one, but, our next album will be, finally, a live album
 from Black Sabbath.

(2:24)[p]
--------------------------------------------------------------------|
--------------------------------------------------------------------|
-13------------------13-11-----------133-------------13-11----------|
-14------------------14-12-----------144-------------14-12--9--7\5--|
--------------------------------------------------------------------|
-12------------------12-10-----------122-------------12-10--7--5\3--|
(Clean Guitar with chourse)
(Bass, Keyboard and drums)

 The lover of life's not the sinner, the ending is just the beginner.

--------------------------------------------------------------------|
--------------------------------------------------------------------|
-13------------------13-11-----------133-------------13-11----------|
-14------------------14-12-----------144-------------14-12--9--7\5--|
--------------------------------------------------------------------|
-12------------------12-10-----------122-------------12-10--7--5\3--|
(Clean Guitar)
 The closer you get to the meaning, well the sooner you'll know that you're dreaming
                                                                            alone.

   C#                           C#                                   (2:55)
----------------------------------------------------------------------------|
----------------------------------------------------------------------------|
----------------------------------------------14-14-14p12-------------------|
---11-----5-7--9~--9p7--9p7-----11------7/8\7-------------14--14p12---------|
---11--5h7------------9----9----11--5h77----------------------------14\(9)--|
-0--9-------------------------0--9------------------------------------------|
It goes on  and on  and on       Well, it's goes on  and on  and on

 C#     C#   E
-------------------|
-------------------|
-------------------|
--11-----11--12----|
--11-----11--12----|
---9------9--10----|
 It goes on and on and on, it's Heaven and Hell

 E5    F#5 G5\  C5        D5 D5    E5  F#5 G5/E5 G5\F#5  E5
-------------------------------------------------------------|
-------------------------------------------------------------|
-9----11-12\(7)--------------------9-----11-12/14--12\11--9--|
-9----11-12\(7)-10-(x-x)--12-12----9-----11-12/14--12\11--9--|
-7-----9-10-----10-(x-x)--12-12----7------9-10/12--10\-9--7--|
-0---------------8-(x-x)--10-10---------------------------0--|
              Yeah!                      Yeah, yeah!

 E5    F#5 G5\  C5        D5 D5    E5  F#5 G5/E5 G5\F#5  E5
-------------------------------------------------------------|
-------------------------------------------------------------|
-9----11-12\(7)--------------------9-----11-12/14--12\11--9--|
-9----11-12\(7)-10-(x-x)--12-12----9-----11-12/14--12\11--9--|
-7-----9-10-----10-(x-x)--12-12----7------9-10/12--10\-9--7--|
-0---------------8-(x-x)--10-10---------------------------0--|
Oh, so true!              Somebody gonna learn the truth, ohh! Alright!

BRIDGE (3:20)
                                                                            (3:31)
 E      F#  A   A  A   A  A  A  D  D D  D D D    F   F  F   F  F  F  C  C C  C C C
-------------------------------------------------------------------------------------|
-------------------------------------------------------------------------------------|
-9-(xx)-11--14--14-14--14-14-14-7--7-7---7-7-7---10--10-10--10-10-10--5--5-5--5-5-5--|
-9-(xx)-11--14--14-14--14-14-14-7--7-7---7-7-7---10--10-10--10-10-10--5--5-5--5-5-5--|
-7-(xx)--9--12--12-12--12-12-12-5--5-5---5-5-5----8---8--8---8--8--8--3--3-3--3-3-3--|
-------------------------------------------------------------------------------------|
 {......................................strum......................................}
 Oh, oh no                 Ohh  Don't you
  G  G  G   G  G  G   D  D D   D D D   A    A  A  A   A   A  A  A (3:41)
---------------------------------------------------------------------|
---------------------------------------------------------------------|
-12--12-12--12-12-12--7--7-7---7-7-7----14--14-14-14---14--14-14-14--|
-12--12-12--12-12-12--7--7-7---7-7-7----14--14-14-14---14--14-14-14--|
-10--10-10--10-10-10--5--5-5---5-5-5----12--12-12-12---12--12-12-12--|
---------------------------------------------------------------------|
{..............................strum..............................}
 Yeha, yeah                            Ahhhhhhhhhhhhhhhhhhhhhhhhhh, oh!

--------------------------------------------------------------------------------------|
-------------------12\(5)-----------------------------------12\(5)--------------------|
-------------(x-x)-12\(5)-----------------------------(x-x)-12\(5)--------------------|
-------------(x-x)-12\(5)------7~--5\4----------------(x-x)-12\(5)------7~--5\4-------|
-----7h10p7~-(x-x)--------7h10----------7~----7h10p7~-(x-x)--------7h10---------10-7--|
-0-0--------------------------------------0-0-----------------------------------------|
    Alright!!                        Ummmm

--------------------------------------------------------------------------------------|
-------------------12\(5)-----------------------------------12\(5)--------------------|
-------------(x-x)-12\(5)-----------------------------(x-x)-12\(5)--------------------|
-------------(x-x)-12\(5)------7~--5\4----------------(x-x)-12\(5)------7~--5\4-------|
-----7h10p7~-(x-x)--------7h10----------7~----7h10p7~-(x-x)--------7h10---------10-7--|
-0-0--------------------------------------0-0-----------------------------------------|
Well if it seems to be real, it's an illusion. For every moment of truth, there's
                                               confusion in life

-------------------------------------------------------------------------------|
-----------------12\(5)---------------------------------12\(5)-----------------|
-----------(x-x)-12\(5)---------------------------(x-x)-12\(5)-----------------|
-----------(x-x)-12\(5)----7~--5\4----------------(x-x)-12\(5)----7~--5\4------|
----7h9p7~-(x-x)--------7h9--------7~-----7h9p7~--(x-x)--------7h9--------9-7--|
-0-0----------------------------------00-0-------------------------------------|
 Love,  can be seen as the answer, but nobody bleeds for the dancer
                                                                  (4:20)
----------------------------------------------------------------------|
---------15~-15~-12-15p12--12-----------------------------------------|
-14s^(16)----------------14--14p12------------------------------------|
----------------------------------14-122-14p12------------------------|
----------------------------------------------14p12\10----------------|
-------------------------------------------------------0--(Let ring)--|
 On and on   On and on      On and on and on and on and on and on and on!

                                             (4:30)
---------------------------------------------------|
-7---------------7h9-7h9-7h9-7h9-7h9-7hh9-7h9-7h9--|
-7---------------7h9-7h9-7h9-7h9-7h9-7hh9-7h9-7h9--|
-7---------------7h9-7h9-7h9-7h9-7h9-7hh9-7h9-7h9--|
---------------------------------------------------|
---------------------------------------------------|
(Guitar toggle on middle pick up)
{vp in 0 to Full}              {vp out Full to 0}
                (......Chourse and echoplex.....)
       Ohhhh

---------------------------------------------------|
-7---------------7h9-7h9---------7h9-7hh9-7h9-7h9--|
-7---------------7h9-7h9---------7h9-7hh9-7h9-7h9--|
-7---------------7h9-7h9---------7h9-7hh9-7h9-7h9--|
---------------------------------------------------|
---------------------------------------------------|
{vp in 0 to Full}              {vp out Full to 0}
                (......Chourse and echoplex.....)
                My Life is Heaven and Hell


----------------------------------------|
-7~~~~-----------7h9~~~~~~~~~~~~--------|
-7~~~~-----------7h9~~~~~~~~~~~~--------|
-7~~~~-----------7h9~~~~~~~~~~~~--------|
----------------------------------------|
----------------------------------------|
vp in 0 to Full}    {vp out Full to 0}
              (Chourse and echoplex)
 Somebody gonna do it well, gonna do it well, gonna do it well!

                                             (5:00)
---------------------------------------------------|
-7---------------7h9-7h9-7h9-7h9-7h9-7hh9-7h9-7h9--|
-7---------------7h9-7h9-7h9-7h9-7h9-7hh9-7h9-7h9--|
-7---------------7h9-7h9-7h9-7h9-7h9-7hh9-7h9-7h9--|
---------------------------------------------------|
---------------------------------------------------|
{vp in 0 to Full}              {vp out Full to 0}
                (......Chourse and echoplex.....)

SOLO (5:03)                                    (5:06)
-------------------------12---------------------------|
-^15{17-17}15-12-------12--15p12----------------------|
----------------14^(16)---------15-12---15p12\11------|
------------------------------------------------14~---|
------------------------------------------------------|
------------------------------------------------------|
(Switch toggle to trebble pickup)
Guitar with Chourse

[p]                                       (5:12)
----------------------------------------------------|
----------------------------------------------------|
----------------------------------------------------|
----------------------------------------------------|
-12/14--12~--10h12p10\9-10-9-7/9-10p9p77\5/7~~~-----|
----------------------------------------------------|

[f]
-----------------------------------------12-14--------------------------------------|
-7h10p7-------------------------------112-----15-12h15p12--12-15------------12-15~--|
-------10--7h9p7--------------7-----12-------------------14-----14-12-14^(16)-------|
-----------------7~~-9p7-7h9~--12h14------------------------------------------------|
------------------------9-----------------------------------------------------------|
------------------------------------------------------------------------------------|

                                 (5:22)
----------------------------------------|
-12-15p12--12-15-12~--------------------|
---------14----------12h14p12-----------|
-----------------------------14~~-------|
---------------------------------14~~---|
----------------------------------------|
                                                       (5:27)
-15~~~-15~~~-15p12----12-15-----------------------------------|
--------------------12-----15-12--12-155---------12-----------|
------------------14------------14------14-12--12--12\11------|
---------------------------------------------14---------14~~--|
--------------------------------------------------------------|
--------------------------------------------------------------|
                                                                  (5:32)
--------------------------------------------------------------------------|
---------15s^(17s`15~)-15p12-15~~-15p122----------------------------------|
-12-14p12-------------------------------14-12-14p12-14~~-12h14~~-14-14~~--|
--------------------------------------------------------------------------|
--------------------------------------------------------------------------|
--------------------------------------------------------------------------|
                                                                             (5:38)
----------12h15p12--------------------------------------------------------------------|
-(^15{17}]--------15-12h15p12---------------------------------------------------------|
-----------------------------14-12h14p112--------------------------12\11-11h12h14~~---|
-----------------------------------------14-12h14p12----------12-14-------------------|
----------------------------------------------------14~~-12-14------------------------|
--------------------------------------------------------------------------------------|
                                                                           (5:42)
-----------------12-15-15p12----12-15----12-15p12-12-15-12----------------------|
---------------12-----------15-------155------------------12--12----------------|
-14-14-14-12/14---------------------------------------------14--14-12\11-11-12--|
--------------------------------------------------------------------------------|
--------------------------------------------------------------------------------|
--------------------------------------------------------------------------------|

                    (5:44)
-------------------------|
-------------------------|
-------------------------|
-14-12-------------------|
------14-12\10-12-10--2--|
----------------------0--|

(5:49)                                                            (5:59)
--------------------------------------------------------------------------|
--------------------------------------------------------------------------|
-9-9-9--7-7-7-------------------------------------------------7-9~(/12)---|
-------------9-9-9--7-7-7--5-5-5-4\2-2----2-4-5--4-5-7--5-7-9-------------|
--------------------------------------------------------------------------|
--------------------------------------------------------------------------|

                                          (6:06)
-------------------------------------------------|
-------------------------------------------------|
-7/9----------------------------7h8--------------|
-----7/9--5/7--4h5--4-5-4------------------------|
------------------7-------7-5--------------------|
------------------------------------3^((4p0)-0---|
{..reverb/echo..}
                                                                              (6:17)
--------------------------------------------12-12~~(\9)--------------------------------|
------------------------------------------12-------------------------------------------|
-14-14-12~~\11--------------14-14-12~~\\11-------------14-14-12~~\11--12-14------------|
--------------12-14-14(\10)-------------------------------------------------14p12\10~--|
---------------------------------------------------------------------------------------|
---------------------------------------------------------------------------------------|

                                                                             (6:23)
----------12--12~-----12-14-15-17-19~-117-15h17p15----------------------------------|
--------12--15---12h15----------------------------17--15h17p15----------------------|
-14^(16)------------------------------------------------------16--14-12h14p12-------|
-------------------------------------------------------------------------------14---|
------------------------------------------------------------------------------------|
------------------------------------------------------------------------------------|

                                                                                 (6:27)
---------------------------------------------------------------------------------------|
---------------------------------------------------------------------------------------|
---------------------------------------------------------------------------(12h14 tr~)-|
-12h14p12-------------------------------------------------------(12h14 tr~)------------|
---------14-12h14p12\10-10h12p10--10h122------------(10h12 tr~~)-----------------------|
--------------------------------12------(10h12 tr~~)-----------------------------------|

                                                                      (6:33)
------------(12h15 tr~~~~~~~)------------15-12--------------15-12----------|
-(12h15 tr~)-----------------(12h15 tr~~)-----15-(12h15 tr~)-----12h15p12--|
---------------------------------------------------------------------------|
---------------------------------------------------------------------------|
---------------------------------------------------------------------------|
---------------------------------------------------------------------------|
                                                                                   (6:40)
---12-12-15-15p12------------------15-((12h15 tr~)-----15-(12h15 tr~)-----15-(12h15 tr~)--|
-12---------------15-12--(12h15 tr~)---------------12h15--------------12h15---------------|
------------------------------------------------------------------------------------------|
------------------------------------------------------------------------------------------|
------------------------------------------------------------------------------------------|
------------------------------------------------------------------------------------------|

                                                                         (6:51)
-------------------------20-20\15-15-122---------------------------------------------|
-15--------------------18---------------15-12-------------------------8p7----9\(5)---|
---14-12/(15)--18~~~-18----------------------14-12----------------7h9----9~~-9\(5)---|
------------------------------------------------14\5-------5h7/9-----------9\(5)-----|
----------------------------------------------------7-5-5h7--------------------------|
-------------------------------------------------------------------------------------|
(6:56)                                                                         (7:01)
-----------------------------12-12h15p112--12-12h15p12--12-15p12--15p12h15p12-------|
----8p7-------12-12-15-15~-12------------15-----------15--------15-----------15-12--|
-------9-12/14----------------------------------------------------------------------|
-7/9--------------------------------------------------------------------------------|
------------------------------------------------------------------------------------|
------------------------------------------------------------------------------------|

                                                             (7:03)
-15p12h15p12---------------------------------------------------------|
------------15-12-15p12h15p12----------------------------------------|
-----------------------------14-12-14p112h14p12----------------------|
-----------------------------------------------12h14p12\5------------|
---------------------------------------------------------7s^(9s`7)---|
---------------------------------------------------------------------|
                                                                                    (7:08)
-------------------------------------------------12-15~~-15-12--------12-15-(12h15 tr~)---|
-----------------------------12-15-12-112~~/(15)--------------15-12-15-----------------15-|
-----------12-12h14p12--12-14------12-112~~/(15)------------------------------------------|
------12h14-----------14-----------12-112~~/(15)------------------------------------------|
-12h14------------------------------------------------------------------------------------|
------------------------------------------------------------------------------------------|
                                                                               (7:12)
--------------------------12-15-12h15p112--12h15p12--12h15p12--12h15p12--12h15p12---|
-(12h15 tr~)--(12h15 tr~)----------------15--------15--------15--------15--------15-|
------------14----------------------------------------------------------------------|
------------------------------------------------------------------------------------|
------------------------------------------------------------------------------------|
------------------------------------------------------------------------------------|
                                                                                 (7:17)
-12h15p12--12h15p12--------------12h15pp12-17h19\12-(12h15 tr~)-21^(23`21)-12h15p12--12-|
---------15--------15p12-------12--------------------------------------------------15---|
------------------------14^(16)---------------------------------------------------------|
----------------------------------------------------------------------------------------|
----------------------------------------------------------------------------------------|
----------------------------------------------------------------------------------------|
                                                      (7:21)
-12h15p12-15^(17s`15)-12h15p12------------------------------|
------------------------------12h15p12----------------------|
--------------------------------------112h14p12-------------|
-----------------------------------------------12^(13s`12)--|
------------------------------------------------------------|
------------------------------------------------------------|
                                                                                      (7:28)
---------------------------------------------------------------------------------------------|
-12-12-12\7-7-7--9-9-9--7-7-7\5/9--8-100--8-10--8-10--8~~--13^(15)---------------------------|
-12-12-12\7-7-7--9-9-9--7-7-7\5/9------------------------9-----------------------12h14-12~---|
-12-12-12\7-7-7--9-9-9--7-7-7\5/9---------------------------------9^(12s`9)-12h14---------14-|
----------x-x-x------------------------------------------------------------------------------|
----------0-0-0------------------------------------------------------------------------------|

                                    (7:31)
------------------------------------------|
------------------------------------------|
-12------12--------------12-14--12-14-----|
----12h14--14-12\10-12h14-----------------|
------------------------------------------|
--------------------------------------00--|
                                                                    (7:54)
-------------------------------------------------12-15-----12-------------|
----------------8------------------------------12-----15-12--15-----------|
----------7-9~~--9-7-------------7-9/122-14~-14----------------12/14------|
-----4-5-9----------9~~-5-4-5-7/9-----------------------------------------|
-5-7----------------------------------------------------------------12/14-|
--------------------------------------------------------------------------|
                                                                                      (8:02)
-------------------------12-----------------------------------------------------------------|
-----------------------12--15~-15~-15---12----------12-15-------12-15-------12-15-----------|
---------12h14~-14^(16)--------------122--14-14^(16)-----14^(16)-----14^(16)-----14-12------|
------14------------------------------------------------------------------------------14-12-|
-12h14--------------------------------------------------------------------------------------|
--------------------------------------------------------------------------------------------|
                                                              (8:10)
----------------------------------------------------------------------|
----------------------------------------------------------------------|
-------------------------------------------12-12----------------------|
-------------------------------------122/14-----14p12-----------------|
-14-12\10-12-10-12-10--------10/12/14----------------14-14p12\10\5----|
---------------------12-10h12--------------------------------------0--|

(8:13)                                                        (8:33)
---------------------------------------------------------------------|
---------------------------------------------------------------------|
---------------------------------------------------------------------|
--------4-5-7-----------------------------4-5-7----------------------|
-7~~~---------5~~------7~~~\(3)----7~~~~---------5~~------7~~~s\(3)--|
---------------------------------------------------------------------|
{vp in}{vp each note}            {vp in}{vp each note}

 E   F# G   A   D D  E              (8:47)
------------------------------------------|
------------------------------------------|
----11--12--14--7-7-----------------------|
-9--11--12--14--7-7--9--------------------|
-7---9--10--12--5-5--7--------------------|
-0-------------------0-{Let chord ring}}--|
                                                        (8:59)
--------------------------------------------------------------|
-12-12-12\(9)---(x)-7-7-7---(x)-12\(9)---7-9------------------|
-12-12-12\(9)---(x)-7-7-7---(x)-12\(9)---7-9------------------|
-12-12-12\(9)---(x)-7-7-7---(x)-12\(9)---7-9-(Let chord ring)-|
--------------------------------------------------------------|
--------------------------------------------------------------|
                                                                        (9:02)
-12h15p12----12h15p12-------------12h155p12--12h15p12--12h15p12---------------|
---------15----------15-12h15p12-----------15------------------15-12h15p12----|
--------------------------------14----------------------------------------14--|
------------------------------------------------------------------------------|
------------------------------------------------------------------------------|
------------------------------------------------------------------------------|
                                                                                 (9:04)
-12h15p12--12h15p12--------12-(12h15 trr~)--------12h15p12--------12h15p12--12h15p12----|
---------15--------12h15p12---------------15-12h15--------12h15p12--------15--------15--|
----------------------------------------------------------------------------------------|
----------------------------------------------------------------------------------------|
----------------------------------------------------------------------------------------|
----------------------------------------------------------------------------------------|

                                                                         (9:07)
----------------------------------------------------------------------------12--|
--12h15p12---------------------------------------------------------------12-----|
----------14p12-12h14p12--------------------------------------------12h14-------|
------------------------12h14p12----------------------------------12------------|
--------------------------------12h14p112-10h12p10--------10h12/14--------------|
--------------------------------------------------12-10h12----------------------|
                                                                                 (9:11)
-15p12--12h15p12h15p12--12--------------------------------------------------------------|
------15--------------15--[~\(12h15 tr~~)]----------------------------------------------|
------------------------------------------(12h14 tr~)-----------------------------------|
-----------------------------------------------------(12h14 tr~)------------------------|
----------------------------------------------------------------(12h15 tr~)-(10h12 tr~)-|
----------------------------------------------------------------------------------------|

                                                                                 (9:13)
------------------------12-12h15p12h15pp12/13h16p13h16p13/15h18p15h18p15/17h21p17h21p17-|
-------------------12h15----------------------------------------------------------------|
--------------12h14---------------------------------------------------------------------|
---------12h14--------------------------------------------------------------------------|
-10/12h14-------------------------------------------------------------------------------|
----------------------------------------------------------------------------------------|
                                                                               (9:16)
-15h18p15h18p15-18^(21`18)-18p15---------------------------12-15p12h15p12--15p12---|
--------------------------------18p15-115-15-18p15h18p15-15--------------15-----15-|
-----------------------------------------------------------------------------------|
-----------------------------------------------------------------------------------|
-----------------------------------------------------------------------------------|
-----------------------------------------------------------------------------------|
                                                                                           (9:21)
-12-12-15^(18)-12-12h15p12------------------------------------------------------------------------|
--------------------------12-12h15p12---15-12-15p12--15p12--15-12--12-15-15p12--15-15p12--15^(17)-|
-------------------------------------144-----------14-----14-----14-----------14--------14--------|
--------------------------------------------------------------------------------------------------|
--------------------------------------------------------------------------------------------------|
--------------------------------------------------------------------------------------------------|

                                                                                       (9:25)
-15^(17)-12-12h15p12------------------------------------------------------------------------|
--------------------12----------------------------------------------------------------------|
----------------------14^(16)--------------14p12--14p12-------------------------------------|
-----------------------------14^(16)-122h14-----14-----14-14p12--14p12--14p12--14p12--14-12-|
---------------------------------------------------------------14-----14-----14-----14------|
--------------------------------------------------------------------------------------------|

                                                                         (9:29)
-----------12-14-15-14-12-15/21-21p18---18-21-18-21^(23)-18h21p18---------------|
-------------------------------------211-------------------------21-21^(23)-----|
-14^(16`14)----------------------------------------------------------------19~--|
--------------------------------------------------------------------------------|
--------------------------------------------------------------------------------|
--------------------------------------------------------------------------------|
                                                                                      (9:31)
--------------------------------------------------------------------------------------------|
-20p17---20p17-20p17---20p17--------17------------------------------------------------------|
------19------------19------19-17h19--119-(17h19p17 tr~)------------------------------------|
--------------------------------------------------------(17h19p17 tr~)-(15h17p15 tr~)-14p12-|
--------------------------------------------------------------------------------------------|
--------------------------------------------------------------------------------------------|

                                                                                   (9:35)
-------------------------------------------------------------------------------------------|
-------------------------------------------------------------------(11h12 tr~)-(12h15 tr~)-|
-----------------------------------------------11h12h14-(11h12 tr~)------------------------|
-(12h14p12 tr~)-----------------------111h12h14--------------------------------------------|
---------------(12h14p12 tr~)-11h12h14-----------------------------------------------------|
-------------------------------------------------------------------------------------------|

                                                                       (9:39)
-(12h15 tr~)-(15h18 tr~)-15-12-15^(17)--15-12--12--------------------------------|
---------------------------------------------15--12h15p12--12-15p12--15s^(17\12)-|
---------------------------------------------------------14--------14------------|
---------------------------------------------------------------------------------|
---------------------------------------------------------------------------------|
---------------------------------------------------------------------------------|

                                               (9:41)
-12-12h15p12---12h15p12--15-12h15p12----------------------------|
------------15---------15-----------12hh15p12-------------------|
---------------------------------------------14\(volume off)----|
----------------------------------------------------------------|
----------------------------------------------------------------|
----------------------------------------------------------------|

(9:45)                                                          (9:54)
----------------------------------------------------------------------|
-15\(9)-9-------------------------------------------------------------|
-15\(9)-9-------------------------------------------------------------|
--------9----------------------------------------------5----5---5-----|
----------------0-1-2--------2-3-5--7-77-7--10-9-7\3--5-x--5-5-5-x----|
---------0-1-2-4-----1-2-3-4-----------------------------7--------7~--|
{vp in}

--------------------------------------------------------------------------------------|
--------------------------------------------------------------------------------------|
--------------------------------------------------------------------------------------|
--5-----5-----5-----5----5----5----5----5----5---5------------------------------------|
-5--3--5-x---5--3--5-x--5-3--5-x--5-5-55-x--5-5-5-x--4-3-3-------4-3-3-----2----2-----|
----------7-----------7---------7---------7--------7----4--4-3-2----4--4-3---3-2--3-2-|

                                      (10:17 - 10:29)
-------------------------------------------------------|
-------------------------------------------------------|
-------------------------------------------------------|
-------------------------------------------------------|
-2--1-----2---1----2---2--0-----2--0-------------------|
------2--1------2------------1--------((1h2 tr~~~~~~)--|
                                                      (10:36)
--------------------------------------------------------------|
--------------------------------------------------------------|
--------------------------------------------------------------|
--------------------------------------------------------------|
--------------------------------------------------------------|
-2h3h5--5h6h8--4h5h7-5h6h8-7h8h10-9h10hh12-12h13h15-13h14h16--|
 (....................chourse and wah......................)
                                                                    (10:38)
-12-12-15p12--12-15p12--12-15p12--12-155p12--12-15p12----------------------|
------------15--------15--------15---------15--------15-12-15p12-------12--|
----------------------------------------------------------------14^(16)----|
---------------------------------------------------------------------------|
---------------------------------------------------------------------------|
---------------------------------------------------------------------------|
 (...........................chourse and wah.............................)

                                                           (10:40)
-------------------------------------------------------------12--|
-----------------------------------------------------------12----|
-12h14p12--12h14p12--12h14p12--12h14p122--12h14p12--14^(16)------|
---------14--------14--------14---------14--------14-------------|
-----------------------------------------------------------------|
-----------------------------------------------------------------|
 (......................chourse and wah........................)
                                                                                   (10:44)
---------------------------------------------------15^(17)-12-15p12--16p13--17p14--18p15---|
-12h15p12--12h15p12--12h15p12--17s^(19))-12h15p12------------------15-----16-----17-----18-|
---------14--------14--------14------------------14----------------------------------------|
-------------------------------------------------------------------------------------------|
-------------------------------------------------------------------------------------------|
-------------------------------------------------------------------------------------------|
 (...................................chourse and wah....................................)

                                                                       (10:47)
-15-18p17p15-18p17p15-15p14p12-15p14p122-------12----------------------------------|
----------------------------------------15^(17)--15^(17)-15-17^(19s`17)------------|
-----------------------------------------------------------------------------------|
-----------------------------------------------------------------------------------|
------------------------------------------------------------------------(^17{19})--|
-----------------------------------------------------------------------------------|
 (..............................chourse and wah.................................)

                                                                       (10:51)
--------------------------------------------------------------------------------|
--------------------------------------------------------------------------------|
-----------------------9-------9--------9-12--14p12--14p12--12-14p12-12-14p12---|
14-10/14---------9^(11)--9^(11)--9^(11)-----------14-----12---------------------|
---------10/12------------------------------------------------------------------|
--------------------------------------------------------------------------------|
(............................chourse and wah...............................)
                                                                               (10:55)
-------------------------------------------------------------------------12h15p12h15p12-|
-------------------------------------------------------------------12h15----------------|
-12-14p12--12-14p12--12-14p12--12-14p122--12-14p12--(12h14p12 tr~~)---------------------|
---------14--------14--------14---------14--------14------------------------------------|
----------------------------------------------------------------------------------------|
----------------------------------------------------------------------------------------|
(......................chourse and wah............................)
                                                                                    (10:59)
-12h15p12-----------------------------------------15p12--12-15-18s^(20)-18p15-----------15-|
---------15p12h12p12--12-17^s`(19`17^199`17^19`17)-----12--------------------18-18p15-18---|
--------------------14---------------------------------------------------------------------|
-------------------------------------------------------------------------------------------|
-------------------------------------------------------------------------------------------|
-------------------------------------------------------------------------------------------|
 (....................................chourse and wah.....................................)

                                                                                      (11:04)
----------------------------------------------------------------------------------------------|
-15p12------------15-15p12--------------------------------------------------------------------|
------14-14s^(16~)--------14--14p12-14pp12--14p12----------------------------------12-14p12---|
------------------------------------------14-----14-14p12-14p12-----12-14p12--12h14--------14-|
---------------------------------------------------------------12h14--------14----------------|
----------------------------------------------------------------------------------------------|
 (....................................chourse and wah.......................................)

-----------15p12-----12-15p12--12-15p122--12-15p12--12-15p12--12-15p12--12-15--|
------12h15-----15-12--------15---------15--------15--------15--------15-------|
-12h14-------------------------------------------------------------------------|
-------------------------------------------------------------------------------|
-------------------------------------------------------------------------------|
-------------------------------------------------------------------------------|
 (............................chourse and wah...............................)

                                                                        (11:11)
-12-15p12--12-15p12--12-15p12--------------------------------------------------|
---------15--------15--------15-12-15p112--12-15p12--15p12--12-15p12-------12--|
-----------------------------------------14--------14-----14--------14^(16)----|
-------------------------------------------------------------------------------|
-------------------------------------------------------------------------------|
-------------------------------------------------------------------------------|
 (............................chourse and wah...............................)
                                                                              (11:13)
------------15-12-12h15p12--12h15p12-------------------------------------------------|
-15^(17)-12~--------------15--------15--12h15p12--12h15p12-----------------------12--|
------------------------------------------------14--------14-12h14p12--12-14^(16)----|
---------------------------------------------------------------------14--------------|
-------------------------------------------------------------------------------------|
-------------------------------------------------------------------------------------|
 (................................chourse and wah..................................)

                               (trill 11:25 - 11:37)      (Open E 11:41 - 11:45)
-----------------------------------------------------------------------------|
-7--2--7--2--7--2------------------------------------------------------------|
-7--2--7--2--7--2------------------------------------------------------------|
-7--2--7--2--7--2------------------------------------------------------------|
-----------------------------------------------------------------------------|
-----------------3~~~~~~~~~~~12\(2h3 trr~~~~~~~~~~~)-2~~~~~~/3~~/4~~/5~~-0---|
(.................................chourse..............................)
comments
We did not receive enough feedback on this tab! Please rate:
print report bad tab
1 2 3 4 5
I want to post or [tab]
guest
You may want to rate the tab now too:
select rating
Please do not post tabs as comments. Select "correction" instead!