Oops, an error
Loading. Please wait.

Heaven And Hell Bass Tab

ver5
ver5

Whole song

Interactive

More versions @911Tabs.com
775 views 6 this week
no commentswrite comment
1 2 3 4 5
accurate
x 3
Autoscroll
+/-
esc
set tempo
stop
Contributor
Hey! There's an official Ultimate Guitar app which is ideal
for learning songs when you're away from computer. Get the app
WARNING: You are trying to view
                                    content from Ultimate-Guitar.com
                                    in an unauthorized application,
                                    which is prohibited.

                                    Please use an official Ultimate
                                    Guitar Tabs application for iPhone,
                                    iPad or Android to access legitimate
                                    chords, guitar, bass, and drum tabs
                                    from Ultimate-Guitar.com database.

                                    Type "ultimate guitar tabs" in Apple
                                    App Store's or Android Market's
                                    search to find the application.
before judging something, try actually playing it

G|-----------------------------------------------------------------|
D|-----------------------------------------------------------------|
A|-6-------6-------8-------9---------------------------------------|
E|---------------------------------7-------------------9-------9---|
   1 e + a 2 e + a 3 e + a 4 e + a 1 e + a 2 e + a 3 e + a 4 e + a

G|-----------------------------------------------------8-6---------|
D|---------------------------------6-r---------------------8-6-----|
A|-6-------6-------8-------9-----------9-8-6-------------------9-8-|
E|-----------------------------------------------------------------|
   1 e + a 2 e + a 3 e + a 4 e + a 1 e + a 2 e + a 3 e + a 4 e + a

0:10
G|-----------------------------------------------------------------|
D|-----------------------------------------------------------------|
A|-6-------6-------8-------9---------------------------------------|
E|---------------------------------7-------------------9-----9-9---|
   1 e + a 2 e + a 3 e + a 4 e + a 1 e + a 2 e + a 3 e + a 4 e + a

G|-----------------------------------------------------8-6-----6-8-|
D|---------------------------------6-r---------------------8-8-----|
A|-6-------6-------8-------9-----------9-8-6-----------------------|
E|-----------------------------------------------------------------|
   1 e + a 2 e + a 3 e + a 4 e + a 1 e + a 2 e + a 3 e + a 4 e + a

0:21
G|-------------------------------------------------------------------|
D|o-----------------------------------------------------------------o|
A|o-6---6-6-6---6-6-6---6-6-6---6-6-6---6-6-6---6-6-6---6-6-6---6-6-o|
E|-------------------------------------------------------------------|
    1 e + a 2 e + a 3 e + a 4 e + a 1 e + a 2 e + a 3 e + a 4 e + a

0:32
G|-----------------------------------------------------------------|
D|-----------------------------------------------------------------|
A|-6---6-6-6---6-6-6---6-6-6---6-6-6---6-6-6---6-6-6---6-6-6---6-6-|
E|-----------------------------------------------------------------|
   1 e + a 2 e + a 3 e + a 4 e + a 1 e + a 2 e + a 3 e + a 4 e + a

G|-------------------------------------------------------------6h8-|
D|---------------------------------------------------------6h8-----|
A|-6---6-6-6---6-6-6---6-6-6---6-6-6---6-6-6---6-6-6---6-6---------|
E|-----------------------------------------------------------------|
   1 e + a 2 e + a 3 e + a 4 e + a 1 e + a 2 e + a 3 e + a 4 e + a

0:43
G|-----------------------------------------------------------------|
D|-----------------------------------------------------------------|
A|-6---6-6-6---6-6-6---6-6-6---6-6-6---6-6-6---6-6-6---6-6-6---6-6-|
E|-----------------------------------------------------------------|
   1 e + a 2 e + a 3 e + a 4 e + a 1 e + a 2 e + a 3 e + a 4 e + a

G|-----------------------------------------------------------------|
D|-----------------------------------------------------------------|
A|-6---6-6-6---6-6-6---6-6-6---6-6-6---6-6-6---6-6-6---6-6-9-8-6---|
E|---------------------------------------------------------------9-|
   1 e + a 2 e + a 3 e + a 4 e + a 1 e + a 2 e + a 3 e + a 4 e + a

0:54
G|-----------------------------------------------------------------|
D|-----------------------------------------------------------------|
A|-------------------------9-8-6-----------------------------------|
E|-7-----------7---7---7---------6-9-----------9---9---9---9---9-9-|
   1 e + a 2 e + a 3 e + a 4 e + a 1 e + a 2 e + a 3 e + a 4 e + a

1:00
G|-----------------------------------------------------------------|
D|-----------------------------------------------------------------|
A|-6---6-6-6---6-6-6---6-6-6---6-6-6---6-6-6---6-6-6---6-6-6---6-6-|
E|-----------------------------------------------------------------|
   1 e + a 2 e + a 3 e + a 4 e + a 1 e + a 2 e + a 3 e + a 4 e + a

G|---------------------------------------------------------8-------|
D|-----------------------------------------------------------------|
A|-6---6-6-6---6-6-6---6-6-6---6-6-6---6-6-6---6-6-9---6-6-----6-6-|
E|-----------------------------------------------------------------|
   1 e + a 2 e + a 3 e + a 4 e + a 1 e + a 2 e + a 3 e + a 4 e + a

1:10
G|-------------------------------------------------------------------|
D|o-----------------------------------------------------------------o|
A|o-6---6-6-6---6-6-6---6-6-6---6-6-6---6-6-6---6-6-6---6-6-6---6-6-o|
E|-------------------------------------------------------------------|
    1 e + a 2 e + a 3 e + a 4 e + a 1 e + a 2 e + a 3 e + a 4 e + a

G|-------------------------------------------------------------6h8-|
D|---------------------------------------------------------6h8-----|
A|-6---6-6-6---6-6-6---6-6-6---6-6-6---6-6-6---6-6-6---6-6---------|
E|-----------------------------------------------------------------|
   1 e + a 2 e + a 3 e + a 4 e + a 1 e + a 2 e + a 3 e + a 4 e + a

1:27
G|-----------------------------------------------------------------|
D|-----------------------------------------------------------------|
A|-6---6-6-6---6-6-6---6-6-6---6-6-6---6-6-6---6-6-6---6-6-6---6-6-|
E|-----------------------------------------------------------------|
   1 e + a 2 e + a 3 e + a 4 e + a 1 e + a 2 e + a 3 e + a 4 e + a

G|-----------------------------------------------------------------|
D|-----------------------------------------------------------------|
A|-6---6-6-6---6-6-6---6-6-6---6-6-6---6-6-6---6-6-6---6-6-9-8-6---|
E|---------------------------------------------------------------9-|
   1 e + a 2 e + a 3 e + a 4 e + a 1 e + a 2 e + a 3 e + a 4 e + a

1:38
G|-----------------------------------------------------------------|
D|---------------------------------------------------------------8-|
A|-------------------------9-8-6---------------------------9-8-6---|
E|-7-----------7---7---7---------6-9-----------9---9---9-----------|
   1 e + a 2 e + a 3 e + a 4 e + a 1 e + a 2 e + a 3 e + a 4 e + a

G|-----------------------------------------------------------------|
D|-9-----------9---9---9-------------------------------------------|
A|-------------------------9-8-6-----------------------------------|
E|-------------------------------6-9-----------9---9---9---9---9---|
   1 e + a 2 e + a 3 e + a 4 e + a 1 e + a 2 e + a 3 e + a 4 e + a

1:49
G|-----------------------------------------------------------------|
D|-----------------------------------------------------------------|
A|-------------------------9-8-6-8---------------------------------|
E|-7---7-------7---7-7-7-----------9---------------------------7-9-|
   1 e + a 2 e + a 3 e + a 4 e + a 1 e + a 2 e + a 3 e + a 4 e + a

1:54
G|-----------------------------------------------------------------|
D|-----------------------------------------------------------------|
A|-6-------6-------8-------9---------------------------------------|
E|---------------------------------7-------------------9-------9---|
   1 e + a 2 e + a 3 e + a 4 e + a 1 e + a 2 e + a 3 e + a 4 e + a

G|-----------------------------------------------------8-6---------|
D|---------------------------------6-r---------------------8-6-----|
A|-6---------------8-------9-----------9-8-6-------------------9-8-|
E|-----------------------------------------------------------------|
   1 e + a 2 e + a 3 e + a 4 e + a 1 e + a 2 e + a 3 e + a 4 e + a

G|-----------------------------------------------------------------|
D|-----------------------------------------------------------------|
A|-6-------6-------8-------9---------------------------------------|
E|---------------------------------7-------------------9-----9-9---|
   1 e + a 2 e + a 3 e + a 4 e + a 1 e + a 2 e + a 3 e + a 4 e + a

G|-----------------------------------------------------------------|
D|---------------------------------6-r-----------------------------|
A|-6---------------8-------9-----------9-8-6-------6-------9-------|
E|-----------------------------------------------------------------|
   1 e + a 2 e + a 3 e + a 4 e + a 1 e + a 2 e + a 3 e + a 4 e + a

2:16
G|---------------------6h8-----8-----------------------------------|
D|-6-----------------------------8---------------------------------|
A|-------------------------------------------------------------8-9-|
E|---------------------------------9-----------9---9---9---9-------|
   1 e + a 2 e + a 3 e + a 4 e + a 1 e + a 2 e + a 3 e + a 4 e + a

G|-------------6-----------6---------------------------------------|
D|-6-------------------6-------6---4-----------4---4---4---4---4-6-|
A|-----------------------------------------------------------------|
E|-----------------------------------------------------------------|
   1 e + a 2 e + a 3 e + a 4 e + a 1 e + a 2 e + a 3 e + a 4 e + a

G|-----------------------------------------------------------------|
D|-8-----------8-------8-------8-----------------------------------|
A|-------------------------------9---------------------------------|
E|---------------------------------9-----------9---9---9---9---9-9-|
   1 e + a 2 e + a 3 e + a 4 e + a 1 e + a 2 e + a 3 e + a 4 e + a

G|-----------------------------------------------------------------|
D|-6-----------6---6---6---6-------6---6---6---6-------6-6-6---6---|
A|-----------------------------------------------------------------|
E|-----------------------------------------------------------------|
   1 e + a 2 e + a 3 e + a 4 e + a 1 e + a 2 e + a 3 e + a 4 e + a

2:37
G|-----------------------------------------------------------------|
D|-----------------------------------------------------------------|
A|-6---6-6-6---6-6-6---6-6-6---6-6-6---6-6-6---6-6-9---6-6-6---6-6-|
E|-----------------------------------------------------------------|
   1 e + a 2 e + a 3 e + a 4 e + a 1 e + a 2 e + a 3 e + a 4 e + a

2:42
G|-------------------------------------------------------------------|
D|o-----------------------------------------------------------------o|
A|o-6---6-6-6---6-6-6---6-6-6---6-6-6---6-6-6---6-6-6---6-6-6---6-6-o| x4
E|-------------------------------------------------------------------|
    1 e + a 2 e + a 3 e + a 4 e + a 1 e + a 2 e + a 3 e + a 4 e + a

G|-----------------------------------------------------------------|
D|-----------------------------------------------------------------|
A|-6---6-6-6---6-6-6---6-6-6---6-6-6---6-6-6---6-6-9---6-6-6---6-6-|
E|-----------------------------------------------------------------|
   1 e + a 2 e + a 3 e + a 4 e + a 1 e + a 2 e + a 3 e + a 4 e + a

3:09
G|-----------------------------------------8-------8-------8-------|
D|-----------------------------------------------------------------|
A|-2-----2-2-----4-4-------4-------6---6-6---6-6-6---6-6-6---6-6-6-|
E|-----------------------------------------------------------------|
   1 e + a 2 e + a 3 e + a 4 e + a 1 e + a 2 e + a 3 e + a 4 e + a

3:14
G|-----------------------------------------------------------------|
D|-----------------------------------------------------------------|
A|-6---6-6-6---6-6-6---6-6-6---6-6-6---6-6-6---6-6-6---6-6-6---6-6-|
E|-----------------------------------------------------------------|
   1 e + a 2 e + a 3 e + a 4 e + a 1 e + a 2 e + a 3 e + a 4 e + a

G|-----------------------------6h8-|
D|-------------------------6h8-----|
A|-6---6-6-6---6-6-6---6-6---------|
E|---------------------------------|
   1 e + a 2 e + a 3 e + a 4 e + a

3:23
G|-----------------------------------------------------------------|
D|-----------------------------------------------------------------|
A|-6---6-6-6---6-6-6---6-6-6---6-6-6---6-6-6---6-6-6---6-6-6---6-6-|
E|-----------------------------------------------------------------|
   1 e + a 2 e + a 3 e + a 4 e + a 1 e + a 2 e + a 3 e + a 4 e + a

G|-----------------------------------------------------------------|
D|-----------------------------------------------------------------|
A|-6---6-6-6---6-6-6---6-6-6---6-6-6---6-6-6---6-6-6---6-6-9-8-6---|
E|---------------------------------------------------------------9-|
   1 e + a 2 e + a 3 e + a 4 e + a 1 e + a 2 e + a 3 e + a 4 e + a

3:33
G|-----------------------------------------------------------------|
D|-----------------------------------------------------------------|
A|-6---6-6-6---6-6-6---6-6-6---6-6-6---6-6-6---6-6-6---6-6-6---6-6-|
E|-----------------------------------------------------------------|
   1 e + a 2 e + a 3 e + a 4 e + a 1 e + a 2 e + a 3 e + a 4 e + a

G|-------------------------------------------------------------6h8-|
D|---------------------------------------------------------6h8-----|
A|-6---6-6-6---6-6-6---6-6-6---6-6-6---6-6-6---6-6-6---6-6---------|
E|-----------------------------------------------------------------|
   1 e + a 2 e + a 3 e + a 4 e + a 1 e + a 2 e + a 3 e + a 4 e + a

3:44
G|-------------------------------------------------------------------|  |-----------------|
D|o-----------------------------------------------------------------o|  |---------4---4---|
A|o-6---6-6-6---6-6-6---6-6-6---6-6-6---6-6-6---6-6-6---6-6-6---6-6-o|x3|-6---6-----------|
E|-------------------------------------------------------------------|  |-----------------|
    1 e + a 2 e + a 3 e + a 4 e + a 1 e + a 2 e + a 3 e + a 4 e + a

4:02
G|-------------6h8---6h8-6h8---8-----------------------------------|
D|-6-----------------------------8---------------------------------|
A|-------------------------------------------------------------8-9-|
E|---------------------------------9-----------9-------9---9-------|
   1 e + a 2 e + a 3 e + a 4 e + a 1 e + a 2 e + a 3 e + a 4 e + a

G|-------------6-----------6---------------------------------------|
D|-6-------------------6-------6---4-----------4-------4---4---4---|
A|-----------------------------------------------------------------|
E|-----------------------------------------------------------------|
   1 e + a 2 e + a 3 e + a 4 e + a 1 e + a 2 e + a 3 e + a 4 e + a

G|-------------------------------------------------------------------------------------------------|
D|-------------------------------------------------------------------------------------------------|
A|-6-----------------------------------------------------------------------------------------------|
E|-------------------------------------------------------------------------------------------------|
   1 e + a 2 e + a 3 e + a 4 e + a 1 e + a 2 e + a 3 e + a 4 e + a 1 e + a 2 e + a 3 e + a 4 e + a

4:20
G|-------------------------------------------------------------------|
D|o-----------------------------------------------------------------o|
A|o-4-6-4-6-4-6-4-6-4-6-4-6-4-6-4-6-4-6-4-6-4-6-4-6-4-6-4-6-4-6-4-6-o| x5
E|-------------------------------------------------------------------|
    1 e + a 2 e + a 3 e + a 4 e + a 1 e + a 2 e + a 3 e + a 4 e + a

4:43
G|-----------------------------------------------------------------|
D|-----------------------------------------------------------------|
A|-6-6-6-6-6-6-6-6-6-6-6-6-6-6-6-6-8-8-8-8-8-8-8-8-8-8-8-8-8-8-8-8-|
E|-----------------------------------------------------------------|
   1 e + a 2 e + a 3 e + a 4 e + a 1 e + a 2 e + a 3 e + a 4 e + a

G|---------------------------------------------------------13-11-10-11-10-11-10-11-|
D|---------------------------------------------------------------------------------|
A|-9-9-9-9-9-9-9-9-9-9-9-9-9-9-9-9-11-11-11-11-11-11-11-11-------------------------|
E|---------------------------------------------------------------------------------|
   1 e + a 2 e + a 3 e + a 4 e + a 1  e  +  a  2  e  +  a  3  e  +  a  4  e  +  a

4:53
G|-----------------------------------------------------------------|
D|-----------------------------------------------------------------|
A|-6-6-6-6-6-6-6-6-6-6-6-6-6-6-6-6-8-8-8-8-8-8-8-8-8-8-8-8-8-8-8-8-|
E|-----------------------------------------------------------------|
   1 e + a 2 e + a 3 e + a 4 e + a 1 e + a 2 e + a 3 e + a 4 e + a

G|---------------------------------------------------------11-10-8-10-|
D|--------------------------------------------------------------------|
A|-6-6-6-6-6-6-6-6-6-6-6-6-6-6-6-6-8-8-8-8-8-8-8-8-8-8-8-8------------|
E|--------------------------------------------------------------------|
   1 e + a 2 e + a 3 e + a 4 e + a 1 e + a 2 e + a 3 e + a 4  e  + a

G|-------------------11-----------------------------------------13-11-10-11-10-11-10-11-|
D|-------------11----------11-----------------------------------------------------------|
A|-9-9-9-9-9-9----------------9---9-9-9-11-11-11-11-11-11-11-11-------------------------|
E|--------------------------------------------------------------------------------------|
   1 e + a 2 e +  a  3  e  +  a 4 e + a 1  e  +  a  2  e  +  a  3  e  +  a  4  e  +  a

5:07
G|-----------------------------------------------------------------|
D|-----------------------------------------------------------------|
A|-6-6-6-6-6-6-6-6-6-6-6-6-6-6-6-6-8-8-8-8-8-8-8-8-8-8-8-8-8-8-8-8-|
E|-----------------------------------------------------------------|
   1 e + a 2 e + a 3 e + a 4 e + a 1 e + a 2 e + a 3 e + a 4 e + a

G|---------------------------------------------------------11-10-8-10-|
D|--------------------------------------------------------------------|
A|-6-6-6-6-6-6-6-6-6-6-6-6-6-6-6-6-8-8-8-8-8-8-8-8-8-8-8-8------------|
E|--------------------------------------------------------------------|
   1 e + a 2 e + a 3 e + a 4 e + a 1 e + a 2 e + a 3 e + a 4  e  + a

G|---------------------------------------------------------13-11-10-11-10-11-10-8-|
D|--------------------------------------------------------------------------------|
A|-9-9-9-9-9-9-9-9-9-9-9-9-9-9-9-9-11-11-11-11-11-11-11-11------------------------|
E|--------------------------------------------------------------------------------|
   1 e + a 2 e + a 3 e + a 4 e + a 1  e  +  a  2  e  +  a  3  e  +  a  4  e  +  a

5:21
G|-----------------------------------------------------------------|
D|-----------------------------------------------------------------|
A|-6-6-6-6-6-6-6-6-6---6-6---6-6---8-8-8-8-8-8-8-8-9-8-6-8-9-8-6-8-|
E|-----------------------------------------------------------------|
   1 e + a 2 e + a 3 e + a 4 e + a 1 e + a 2 e + a 3 e + a 4 e + a

G|---------------------------------------------------------13-11-10-11-10-11-10-8-|
D|--------------------------------------------------------------------------------|
A|-9-9-9-9-9-9-9-9-9-9-9-9-9-9-9-9-11-11-11-11-11-11-11-11------------------------|
E|--------------------------------------------------------------------------------|
   1 e + a 2 e + a 3 e + a 4 e + a 1  e  +  a  2  e  +  a  3  e  +  a  4  e  +  a

5:30
G|-----------------------------------------------------------------|
D|-----------------------------------------------------------------|
A|-6-6-6-6-6-6-6-6-6-6-6-6-6-6-6-6-8-8-8-8-8-8-8-8-8-8-8-8-8-8-8-8-|
E|-----------------------------------------------------------------|
   1 e + a 2 e + a 3 e + a 4 e + a 1 e + a 2 e + a 3 e + a 4 e + a

G|---------------------------------------------------------------------------------|
D|---------------------------------------------------------------------------------|
A|-9-9-9-9-9-9-9-9-9-9-9-9-9-9-9-9-11-11-11-11-11-11-11-11-11-11-11-11-11-11-11-11-|
E|---------------------------------------------------------------------------------|
   1 e + a 2 e + a 3 e + a 4 e + a 1  e  +  a  2  e  +  a  3  e  +  a  4  e  +  a

G|-----------------------------------------------------------------|
D|-----------------------------------------------------------------|
A|-6-6-6-6-6-6-6-6-6-6-6-6-6-6-6-6-8-8-8-8-8-8-8-8-8-8-8-8-8-8-8-8-|
E|-----------------------------------------------------------------|
   1 e + a 2 e + a 3 e + a 4 e + a 1 e + a 2 e + a 3 e + a 4 e + a

G|---------------------------------------------------------------------------------|
D|---------------------------------------------------------------------------------|
A|-9-9-9-9-9-9-9-9-9-9-9-9-9-9-9-9-11-11-11-11-11-11-11-11-11-13-11-13-11-13-11-13-|
E|---------------------------------------------------------------------------------|
   1 e + a 2 e + a 3 e + a 4 e + a 1  e  +  a  2  e  +  a  3  e  +  a  4  e  +  a

G|----------------------------------------------------------------|
D|----------------------------------------------------------------|
A|-6--------------------------------------------------------------|
E|----------------------------------------------------------------|
   1 e + a 2 e + a 3 e + a 4 e + a 1 e + a 2 e + a 3 e + a 4 e + a
comments
We did not receive enough feedback on this tab! Please rate:
print report bad tab
1 2 3 4 5
I want to post or [tab]
guest
You may want to rate the tab now too:
select rating
Please do not post tabs as comments. Select "correction" instead!