Oops, an error
Loading. Please wait.

Master Of Reality Tab

36,579 views 57 this week
11 commentsread comments
1 2 3 4 5
accurate
x 27
Autoscroll
+/-
esc
set tempo
stop
Contributor
Hey! There's an official Ultimate Guitar app which is ideal
for learning songs when you're away from computer. Get the app
WARNING: You are trying to view
                                    content from Ultimate-Guitar.com
                                    in an unauthorized application,
                                    which is prohibited.

                                    Please use an official Ultimate
                                    Guitar Tabs application for iPhone,
                                    iPad or Android to access legitimate
                                    chords, guitar, bass, and drum tabs
                                    from Ultimate-Guitar.com database.

                                    Type "ultimate guitar tabs" in Apple
                                    App Store's or Android Market's
                                    search to find the application.
This is da full album.... and you better rate it... it took a long time to tab, and enjoy it.
By the way, I only like black sabbath in ozzy´s years.


Sweet Leaf
Black Sabbath - Master Of Reality (1971)

Tune down 1 1/2 steps

|-------------------------------|-------------------------------------------|
|-------------------------------|-------------------------------------------|
|-------------------------------|-------------------------------------------|
|-------x-x---7\6-5-------5/7---|----------x-x----7\6-5-------5/7-----------|
|-7-7---------5\4-3---(0)-3/5---|----7-7----------5\4-3---(0)-3/5-----------|
|-5-5---------------------------|----5-5------------------------------------|
|                               |
|-------------------------------|---------------------------------|
|-------------------------------|---------------------------------|
|-------------7\6-5-------5-7---|-----------------7\6-5-------5-7-|
|-5h7-7\------------------------|--5h7-7\-------------------------|
|-------------------------------|---------------------------------|
|-------------------------------|---------------------------------|

|-------------------------------|-------------------------------|
|-------------------------------|-------------------------------|
|-------------------------------|-------------------------------|
|-------------------------------|-------------------------------|
|-7---(7)-\----5----10---14\--7-|-7---(7)-\----5---10--14\--7---|
|-5---(5)-\----3-----8---12\--5-|-5---(5)-\----3----8--12\--5---|
|                               |
|-------------------------------|-------------------------------|
|-------------------------------|-------------------------------|
|--------------------5---7^p5---|-------------------5--7^p5-----|
|5/7-----------5--------------7-|5/7-----------5------------7---|
|-------------------------------|-------------------------------|
|-------------------------------|-------------------------------|


|----------------------------------------------------------|
|----------------------------------------------------------|
|----------------------------------------------------------|
|--4-------4-4-4-4/6----6-6--------------------------------|
|--2-------2-2-2-2/4----4-4--------------------------------|
|----------------------------------------------------------|


|----------------------------------------------------------|
|--6-7-6h7p6---6-7-6h7p6---6-7-6h7p6---6-7-6h7p6---7-7/9---|
|------------6-----------6-----------6-----------6---------|
|----------------------------------------------------------|
|----------------------------------------------------------|
|----------------------------------------------------------|

Solo:
|-------9~---9---------------|----------9----------9--------|
|-12^----------12-9----------|-------------12-12^-----------|
|--------------------11p9----|-9-11^------------------------|
|-------------------------11-|------------------------------|
|----------------------------|------------------------------|
|----------------------------|------------------------------|


|-------9~---9---------------|---------------------------------|
|-12^----------12-9----------|---------------------------------|
|--------------------11p9----|-11p9----------------------------|
|-------------------------11-|------11--11p9-------------------|
|----------------------------|---------------11----------------|
|----------------------------|-------------------12--9---------|


|----------------------------------------------------------|
|----------------------------------------------------------|
|----------------------------------------------------------|
|-6-------------------6------------------------------------|
|-4--7-\-6--5---------4--7-\-6--5--------------------------|
|----5-\-4--3------------5-\-4--3--------------------------|


After Forever

Tune down 1 1/2 steps

|-----------------------------------------------------------|
|-----------------------------------------------------------|
|-----------------------------------------------------------|
|-11-9-7-9-9-7-2-0-2-2-2-0-11-9-7-9-9/-11-9-7-9-9/----------|
|--0-0-0-0-0-0-0-0-0-0-0-0--0-0-0-0-0---0-0-0-0-0-----------|
|-----------------------------------------------------------|

|----------------------------------------------------------|
|----------------------------------------------------------|
|--7/9-9-9-9---9/12-12-12-12---7/9-9-9-9-------------------|
|--7/9-9-9-9---9/12-12-12-12---7/9-9-9-9-------------------|
|-x5/7-7-7-7-x-7/10-10-10-10-x-5/7-7-7-7----5-5-5-5-(5)p4--|
|-----------------------------------------0-3-3-3-3-(3)p2--|

|------------------------------|
|------------------------------|
|------------------------------|
|-5--5--5---5---3--3--8\3--5---|
|-5--5--5h7-7p5-3--3--8\3--5---|
|------------------------------|

|------------------------------|
|------------------------------|
|------------------------------|
|-7--7--7---7---5--5-10\5--7---|
|-7--7--7h9-9p7-5--5-10\5--7---|
|------------------------------|

|----------------------------------------------------------|
|----------------------------------------------------------|
|----------------------------------------------------------|
|----------7--7-------------------7--7---------------------|
|---------------5h6p5---5--------------5h6p5---5-----------|
|-3-4-5--5------------8---8--5--5------------8-------------|

Solo:
|----------------------------------------------------------|
|----------------------------------------------------------|
|------------------------------7~--------------------------|
|---------------9---------7--9----9p7-9--------------------|
|---------7-8-9---7---7-9----------------------------------|
|-5/7-7-10-------------------------------------------------|

|---------------------------------------7----7---------------|
|---------------------------------7---10------10-7-----------|
|-----------------------------7-9---7--------------9^^9-8----|
|-----------9-----------7-8-9--------------------------------|
|-----7-8-9---7---7-8-9--------------------------------------|
|-7-10-------------------------------------------------------|

|--------------------------10p7-7--------------------------------|
|----10------10-10-10p7--10-------/12-12---12-12p10--------------|
|-/11--9-7-/11----------9---------------11---------11-11p9-------|
|----------------------------------------------------------11-12-|
|----------------------------------------------------------------|
|----------------------------------------------------------------|

|-----------------------------------------------------------|
|-------7-10--7-10--7-10--7-10--7-10--7-10--7-10--7-10------|
|----9^-----9^----9^----9^----9^----9^----9^----9^----------|
|-12--------------------------------------------------------|
|-----------------------------------------------------------|
|-----------------------------------------------------------|

|--------------------|
|--------------------|
|-9^p7---9-----7-----|
|-----9-----9--------|
|--------------------|
|--------------------|


Embryo

Tune down 1 1/2 steps

|--0---0---0---0---0---0---0----0----|
|------------------------------------|
|------------------------------------|
|--2---4---5---4---2h4-5p4-2----2p0--|
|------------------------------------|
|------------------------------------|

|--0---0---0---0---0----0----0----0-0--|
|--------------------------------------|
|--------------------------------------|
|--5---7---9---7---5h7--5p4--2----2p0--|
|--------------------------------------|
|--------------------------------------|


|--0---0---0---0---0---0---0----0------|
|--------------------------------------|
|--------------------------------------|
|--9---7---5---4---2h4-5p4-2----2p0----|
|--------------------------------------|
|--------------------------------------|


|--0---0---0---0---0---0---0----0----|
|------------------------------------|
|------------------------------------|
|--2---4---5---4---2h4-5p4-2----2p0--|
|------------------------------------|
|------------------------------------|


|--0---0---0---0---0---0---0----0----|
|------------------------------------|
|------------------------------------|
|-14--12---9--12---7h9-5p4-2----2p0--|
|------------------------------------|
|------------------------------------|


|--0---0---0---0---0---0---0----0----|
|------------------------------------|
|------------------------------------|
|--2---4---5---4---2h4-5p4-2----2p0--|
|------------------------------------|
|------------------------------------|


|--3---2---0---0---0---0---0----0----|
|------------------------------------|
|------------------------------------|
|--0---0---0---2---2h4-5p4-2----2p0--|
|------------------------------------|
|------------------------------------|


|--7---5---3---0---0---0---0--------|
|-----------------------------------|
|-----------------------------------|
|--5---4---2---0---2h4-5p4-2--------|
|-----------------------------------|
|-----------------------------------|


Children Of The Grave

Tune down 1 1/2 steps

---------------------------------------------------------------------|
---------------------------------------------------------------------|
---------------------------------------------------------------------|
----------------------------------------------------10--9------------|
----------------------------------------------------10--9------------|
-0---0----0-0-0----0---0----0-0-0----0---0----0-0-0--8--7------------|

-------------------------------------------------|
-------------------------------------------------|
-------------------------------------------------|
-------------------------------------------------|
---12/14--17--17-10-----10-/12-------12\---------|
---10/12--15--15--8------8-/10-------10\---------|

----------------------------------------------------------------------|
----------------------------------------------------------------------|
----------------------------------------------------------------------|
----------------------------------------------------------------------|
-------------------------------------------------------5--------------|
--0---0---0-0-0---0---0---0-0-0----0--0---0-0-0----0---3--------------|

---15----------|
---18^---------|
---------------|
---------------|
---------------|
---------------|

----------------------------------------------------------------------|
----------------------------------------------------------------------|
----------------------------------------------------------------------|
-----------------------2------------------------2---------------------|
--------0--2--0--1--2-----------------0--1--2------1--0---------------|
--0--3--------------------------0--3----------------------------------|

----------------------------------------------------------------------|
----------------------------------------------------------------------|
----------------------------------------------------------------------|
---9----12--9---------------------9---12--9---------------------------|
---7----10--7--9--8---8--9-11-12--7---10--7--12-11--11-12-------------|
--------------x7--6---6--7--9-10------------x10--9---9-10-------------|

Solo:
|--12--12-----12--12-----12-(12)(12)---------------------------|
|--15^-15^----15^-15^----15^(15)(15)15p12----------------------|
|----------------------------------------14^-12-12-14-12----12-|
|--------------------------------------------------------14----|
|--------------------------------------------------------------|
|--------------------------------------------------------------|

|------12---12-------------------|-----------------------------12-|
|----12--15^---15p12-------------|---------------------------12---|
|-14^---------------14^-(12--14)-|-12--12--------------12-14^-----|
|--------------------------------|---14--14-12-14-12h14-----------|
|--------------------------------|--------------------------------|
|--------------------------------|--------------------------------|

|------12----------------------------|-------------------------------------|
|-15^------15p12---------------------|-------------------------------------|
|---------------14^-14-12-14--12--12-|-------------------------------------|
|-------------------------------14---|-14-12-14--12---12----------------12-|
|------------------------------------|-------------14----14-12-10-12/14----|
|------------------------------------|-------------------------------------|

|---------------12----------------|-----------------------15----|
|-------------12--15p12-----------|-------15-12-15-12-/17-------|
|-------12-14^---------14^-12--12-|-14-12-----------------------|
|-12h14----------------------14---|-----------------------------|
|---------------------------------|-----------------------------|
|---------------------------------|-----------------------------|

|-17/18p15--17/18p15--17/18p15--17/18p15-|-17p15----15-----------------------|
|----------------------------------------|------17----1715-------------------|
|----------------------------------------|----------------16\1412-1412----12-|
|----------------------------------------|-----------------------------14----|
|----------------------------------------|-----------------------------------|
|----------------------------------------|-----------------------------------|

|------12----12----------------|---------------12-----12----------------|
|--------15^-----15p12---------|-----------------15^-----15p12----------|
|-14^-----------------14^^--14-|-12----12-14^------------------14^^p12--|
|-------------------------14---|-----14---------------------------------|
|------------------------------|----------------------------------------|
|------------------------------|----------------------------------------|

|-------------------------------|--------------12--------------------|
|-------------------------------|-----------------15p12--------------|
|-14-12----12----------------12-|-14-(12)-14^-----------14p12----12--|
|-------14----14p12-14-12h14----|-----------------------------14-----|
|-------------------------------|------------------------------------|
|-------------------------------|------------------------------------|

|-------------------------------------|------------------------------|
|-------------------------------------|------------------------------|
|-------------------------------------|--------------12--------------|
|-14-12-14-12----12-------------------|-----12-12h14----14p12--------|
|-------------14----14\12-10-12-10-12/|/14---------------------7--4--|
|-------------------------------------|------------------------------|

Ending
|---12--12----14--14---15--15---16--16---17--17\-----------|
|---15^-15^---17^-17^--18^-18^--19^-19^--20^---------------|
|----------------------------------------------------------|
|----------------------------------------------------------|
|----------------------------------------------------------|
|----------------------------------------------------------|


Orchid
Tune down 1 1/2 steps

                t  thumb
                i  index finger
                m  middle finger
Intro: t + i
                                            t m i t m i t m i t m i
-------------12-10--12--7--7--7--7--7-7--|----2-----2-----2-----2----------|
---8-10--12------------------------------|------3-----3-----3-----3--------|
-----------------------------------------|----------------------------o-/--|
-------------10--9--10--5--5--5--5--5-5--|--0-----0-----0-----0--------/-o-|
---7--9--10------------------------------|---------------------------------|
-----------------------------------------|---------------------------------|

   t m i t m i t m i t m i          t m i t m i t m i t m i
|----3-----3-----3-----3---------|----3-----3-----3-----3-----------|
|------0-----0-----0-----0-------|------0-----0-----0-----0---------|
|--------------------------o-/---|----------------------------o-/---|
|--2-----2-----2-----2------/-o--|-----------------------------/-o--|
|--------------------------------|--0-----0-----0-----0-------------|
|--------------------------------|----------------------------------|

   t m i t m i t m i t m i t m i t m i t m i t m i t m i t m i t m i t m i
|----7-----7-----7-----7-----7----10-----9-----7---------------------------------|
|----------------------------------------------------7-----7-----7-----7---------|
|------7-----7-----7-----7-----7----11-----6-----7-----7-----7-----7-----7--o-/--|
|--5-----5-----5-----5-----5-----9-----7-----5-----0-----0-----0-----0-------/-o-|
|--------------------------------------------------------------------------------|
|--------------------------------------------------------------------------------|

"bridge" part - just a change of key
   t m i t m i t m i t m i t m i t m i t m i t m i t m i t m i t m i t m i
|----5-----5-----5-----5-----5-----5-----3-----3-----3-----3-----3-----3------|
|------5-----5-----5-----5-----5-----5-----5-----5-----5-----5-----5-----5----|
|--2-----2-----2-----2-----2-----2--------------------------------------------|
|--------------------------------------5-----4-----5-----5-----5-----5--------|
|-----------------------------------------------------------------------------|
|-----------------------------------------------------------------------------|

Lord Of This World

Tune down 1 1/2 steps


|----------------------------------|
|----------------------------------|
|----------------------------------|
|----------------------------------|
|-7--7-7-5---4---5-/7\-------------|
|-0--0-0--------------/7---6---7---|


|----------------------------------------------------------|
|----------------------------------------------------------|
|-9--9-9---------------------------------------------------|
|-9--9-9-7---6---7--9--9---8---9---7-----------------------|
|-7--7-7-5---4---5--7--9---8---9---5-----------------------|
|----------------------7---6---7---------------------------|


|-------------------------------------------------------------------|
|-------------------------------------------------------------------|
|--9--9--7/9----7-/9--9---7-/9--7--9--7/9--9--7/9----7/9------7--8--|
|--9--9--7/9----7-/9--9---7-/9--5--9--7/9--9--7/9----7/9---9--7--8--|
|--7--7--5/7----5-/7--7---5-/7-----7--5/7--7--5/7----5/7---9--5--6--|
|----------------------------------------------------------7--------|


|------------------------------|
|------------------------------|
|------------------------------|
|-9----8----7-------7^---------|
|-9----8----7------------------|
|-7----6----5------------------|


|------------------------------------------------------------|
|------------------------------------------------------------|
|------------9^---------------------------9^-----------------|
|----------------9h11--9--\7-----------------9h11--9--\7-----|
|--7-8-9p7-------------------7-----9p7-------------------7---|
|----------9---------------------------9---------------------|


solo:                          (bend 1 up)       r
|----------------------------------------------------------|
|----------------------------------------------------------|
|-----------4-4/7-7h9-9----(7)-9-9-9-9-9-9-9-9-9-^9--7h9-9-|
|------5-h7------------------------------------------------|
|--5h7-----------------------------------------------------|
|----------------------------------------------------------|

                                            bend    r
|--------------------------------------------------------------|
|--------------------------------------------------------------|
|-7---------------------------4-4/7-7h9-9--9-9-9-9-9^9---7h9-9-|
|---9\7-5---4-5-4h5p4-4-5-5/7----------------------------------|
|--------------------------------------------------------------|
|--------------------------------------------------------------|


|-----------------------------------------------12---------|
|--------------------------------12--15-12-15^-----15-12---|
|-7/9-9-9-9/12-12-12-12/14-14-14---------------------------|
|----------------------------------------------------------|
|----------------------------------------------------------|
|----------------------------------------------------------|


|---------------12----12--12-14-15-12-14-15-12-14-15^-15^-15^-12-------|
|------------------12-------------------------------------------12-15--|
|-15-14-12--14^--------------------------------------------------------|
|----------------------------------------------------------------------|
|----------------------------------------------------------------------|
|----------------------------------------------------------------------|


|-12---------------------12--------12-------------------|
|----15-12------------------12-15^----15-12-------------|
|----------15-14-12--14^--------------------14-12-14----|
|-------------------------------------------------------|
|-------------------------------------------------------|
|-------------------------------------------------------|


|-12----12--15--15--15--15--15---------|end 1st solo:
|----15-----18^-18^-18^-18^-18^--------|
|--------------------------------------|
|--------------------------------------|
|--------------------------------------|
|--------------------------------------|


|--------------------------------------------------------------|
|-----------------------------------------------------------5--|
|-----------------------------------------------7~----------7^-|
|-9-9-9-9-9----x---x---7-7-7-7-7--------9-9-9-9-----7-7-7-7----|
|-9-9-9-9-9--x-x-x-x---7-7-7-7-7--------9-9-9-9-----7-7-7-7----|
|-7-7-7-7-7--x---x-----5-5-5-5-5--0-----7-7-7-7-----5-5-5-5----|


sorry, i'm not going to do the 2nd solo.  If you can get the first one,
just play the little variations.  If you can get the first one, you
should be able to ad lib thje 2nd one pretty good.

|----------------------------------------------------------|
|----------------------------------------------------------|
|-9-----9------5-5--5-5---7-7--7-7-----12-11---------------|
|-9-----9------5-5--5-5---7-7--7-7-----12-11---------------|
|-7-----7------3-3--3-3---5-5--5-5-----10--9---------------|
|----------------------------------------------------------|


Solitude

Tune down 1 1/2 steps

Fig A
|--------------------------------------------------------------|
|-------3-----------------3-----------3-----------------3------|
|-----3---5-2h3p2-------3---5-------3---5-2h3p2-------3---5----|
|-5---------------3-5-----------5---------------3-5------------|
|--------------------------------------------------------------|
|--------------------------------------------------------------|
Fig A (cont)
|-5h6p5---5-5----5h6p5---5-5----------------------------------------|
|-------6--------------6--------------3-----------------3-----------|
|-----------------------------------3---5-2h3p2-------3---5-2h3p2---|
|-------------------------------5---------------3-5---------------3-|
|-------------------------------------------------------------------|
|-------------------------------------------------------------------|

G        F        G         F

my name it means nothing, my fortune is less..
   G             F           F          G

G        F        G         F

and so on...

Fig B
|-------------------------------------------------------------------------|
|-----3--------------3------------3---------------3-------------3---------|
|-3-----5-232------3---5--------3---5-232-------3---5-232-----3---5-232---|
|-------------3-/5----------5-------------3-5-------------3-5-----------3-|
|-------------------------------------------------------------------------|
|-------------------------------------------------------------------------|


Fig C
|--------------------------------------------------------------|
|--------------------------------------------------------------|
|-----232--------------5-2---------232--------------5-2--------|
|-5-------3-3\-----3-5----/5---5-------3-3\-----3-5----/5------|
|--------------3-5--------------------------3-5----------------|
|--------------------------------------------------------------|
Fig C (cont)
|--------------------------------------------------------------|
|--------------------------------------------------------------|
|-2/3-2-----3-2-----------3\2--------232--------------5-2------|
|-------5-------5---3-3-5-----5---5------3-3\-----3-5----/5----|
|---------------------------------------------3-5--------------|
|--------------------------------------------------------------|

Into The Void

Tune down 1 1/2 steps

|------------------------------------------------------------------------|
|------------------------------------------------------------------------|
|------------------------------------------------------------------------|
|---------------2-----1-----0------------------------------------2-------|
|---------0-1-2-----2-----2---1~---0h1p0---0h1p0---0h1p0---0-1-2---2p0---|
|-(7)\0-3--------------------------------3-------3-------3-------------3-|


|-------------------------------------------------------------|
|-------------------------------------------------------------|
|---9-9-9-9--7--7-7-----------9-9-9-9-7-7---------------------|
|---9-9-9-9--7--7-7-----------9-9-9-9-7-7-----------2---------|
|---7-7-7-7--5--5-5-0-7-6-5---7-7-7-7-5-5-----0-1-2-----------|
|-0-------------------------0-------------3^------------------|


|---------------------------------------------------------------|
|---------------------------------------------------------------|
|----9-9-9-9--7--7----------------------------------------------|
|----9-9-9-9--7--7---7-6-5/-------------------------------------|
|----7-7-7-7--5--5-0-------10-10-10-10-10-12--9-----------------|
|-0-------------------------8--8--8--8--8-10--7-----(7)---------|back to start on 1st time


|--------------------------------------------------------------|
|--------------------------------------------------------------|
|--------------------------------------------------------------|
|-----------------------------------------------slow-----------|
|-5h7---------5h7-----5~---5h7---------5h7-------bend----------|
|-0---0-0-0-0-0---0-0------0---0-0-0-0-0---0-0-5^-^------------|


|--------------------------------------------|
|--------------------------------------------|
|--------------------------------------------|
|--------------------------------------------|
|(5)h7-6-5-------5h7---------5h7-----5/x\----|
|----------7-6-5-0---0-0-0-0-0---0-0---------|


|------------------------------------------------|-------------|
|------------------------------------------------|-------------|
|------------------------------------------------|-------------|
|------------------------------------------------|-------------|
|------------------------------------------------|-7-6-5-------|
|-0--3-(3)p0-6---6-5--3^--0--3-(3)p0-6---6-5--3^-|-------7-6-5-|

solo 1:
|---------------------------------------------------------------------------|
|---------------------------------------------------------------------------|
|-------------------------7-9-9^------7h9-9-9----9p7---9p7------------------|
|-----5-------5---5-7-7/9----------------------------------9\7p5-7----5-----|
|-5h7---7-7-----7-------------------------------------------------------7-7-|
|---------------------------------------------------------------------------|

|---------------------------------------------------------------|
|---------------------------------------------------------------|
|------------7-9^-9^-9^^--7h9-9-9p7-----------------------------|
|-----5-7-7/9-----------------------9\7p5-7~~~---5---5-7-7^^^-5-|
|-5-7----------------------------------------------7------------|
|---------------------------------------------------------------|
|
|---------------------------------------------------------------|
|---------------------------------------------------------------|
|-------------7-9p7-9^7--9-7------------------------------------|
|-----5-7-7/9----------------9\7--5------------------5-5-7^^^-5-|
|-5h7-------------------------------7-7----------5-7------------|
|---------------------------------------------------------------|


|--------------------------------------------------------------|
|--------------------------------------------------------------|
|--------------------------------------------------------------|
|-----------------5------------------------5-------------------|
|-7-6-5-----5-6-7---7~~~--7-6-5------5-6-7---7~~~--------------|
|------7~~~---------------------7~~~---------------------------|


|----------------------------------------------------------------------|
|----------------------------------------------------------------------|
|----------------------------------------------------------------------|
|----------------------------------------------------------------------|
|-/14--14-----------------14--14-----------------14--14----------------|
|--12--12-12\2-2-2/5~~~--/12--12-12\2-2-2/8~~~--/12--12-12\3-3-3/10~~~-|

                                    1:|
|-----------------------------------------12-------------------|
|---------------------------------------12--1512---12-12-------|
|------------------------------------14^--------14-12-12\9-9/--|
|--------------------------------------------------------------|
|--14--14-14---------------14--14-14---------------------------|
|-/12--12-12\3-3-3/12~~~\8/12--12-12---------------------------|

2:|                                            3:|
|-12-15^-15-121512-------------------||-------12---------------------|
|-----------------12-15^-15-15^-15\--||----12-12-15p12---------12-12-|
|------------------------------------||---------------14-1412--12-12-|
|------------------------------------||----------------------14------|
|------------------------------------||------------------------------|
|------------------------------------||------------------------------|

4:|
|------------------------------------------------------------------|
|------------------------------------------------------------------|
|-9^^^^---7h9-9-9-9-p-7--------------------------------------------|
|----------------------9\7p5-7--------5----------------5-----5-7/9-|
|---------------------------------------7-7--------5h7---5h7-------|
|------------------------------------------------------------------|
|
|------------------------------------------------------------------|
|------------------------------------------------------------------|
|---------7h9-9-9-9-p-7---------------------------------------7-9--|
|----------------------9\7p5-7--------5---------------5-7-7/9------|
|---------------------------------------7-7---7-7-5h7--------------|
|------------------------------------------------------------------|


|------------------------12-------------12-----15^^^----15-12--------12-------|
|---------------------12---15-15^^^^------1512----------15-12-15^^^----15-15^-|
|-7-9-9^p7-9////14-14^--------------------------------------------------------|
|-----------------------------------------------------------------------------|
|-----------------------------------------------------------------------------|
|-----------------------------------------------------------------------------|
|
|--------------------------------------------------------------------------|
|--------------------------------------------------------------------------|
|-^9p7-9-9-9-------9-7-------------------------------------7-------7/9^-9^-|
|---------------------9\7-5-7-----------5-----------5h7-9----9\7p5---------|
|-----------------------------------------7---7~~--------------------------|
|--------------------------------------------------------------------------|


|-12----------------12-------12--------------------------------12------|
|---15-12---------12--15-15^---15-12-----------------12-15---12--15^-\-|
|--------14^12-14^------------------^14p12-14--12h14^-----14^----------|
|--------------------------------------------14------------------------|
|----------------------------------------------------------------------|
|----------------------------------------------------------------------|
|
|------------------------------------------------------------------|
|------------------------------------------------------------------|
|-7h9-9----------------------------------7-9-9^^^9^^^9^^^p7--------|
|-------9\7p5--7-----------5----7----7/9--------------------9-7--5-|
|------------------------------------------------------------------|
|------------------------------------------------------------------|


|--------------------------------------------------------------|
|--------------------------------------------------------------|
|--------------------------------------------------------------|
|-----------------5--------------------------5-----------------|
|-7-6-5-----5-6-7---7-7~~---7-6-5------5-6-7---7~~~------------|
|-------7~~-----------------------7~~~-------------------------|

So, this is it. Please rate it.
comments
print report bad tab
11 comments total. Showing first comments. show 1 bad comment
0 reply
SabBloodySab1 wrote on March 11 2005, 12:00 am

Pretty Awesome Tab man... Good Job!

0 reply
mikedeit wrote on March 12 2005, 12:00 am

But anyways, good tab. Sorry about that, I should've rated it, like, 4 stars.

I want to post or [tab]
guest
You may want to rate the tab now too:
select rating
Please do not post tabs as comments. Select "correction" instead!