Oops, an error
Loading. Please wait.

Nib Tab

ver7
5,836 views 15 this week
1 commentread comment
1 2 3 4 5
accurate
x 4
Autoscroll
+/-
esc
set tempo
stop
Contributor
Hey! There's an official Ultimate Guitar app which is ideal
for learning songs when you're away from computer. Get the app
WARNING: You are trying to view
                                    content from Ultimate-Guitar.com
                                    in an unauthorized application,
                                    which is prohibited.

                                    Please use an official Ultimate
                                    Guitar Tabs application for iPhone,
                                    iPad or Android to access legitimate
                                    chords, guitar, bass, and drum tabs
                                    from Ultimate-Guitar.com database.

                                    Type "ultimate guitar tabs" in Apple
                                    App Store's or Android Market's
                                    search to find the application.
This is after 'Basically' (The bass intro)

(1.03)
e|--------------------------------------------------------|
B|--------------------------------------------------------|
G|--9--9--7--9----12--11----9--9--7--9----12b14-12--------|
D|--9--9--7--9----12--11----9--9--7--9--------------------|
A|--7--7--5--7----10--9-----7--7--5--7--------------------|
E|--------------------------------------------------------|

e|--------------------------------------------------------|
B|--------------------------------------------------------|
G|--9--9--7--9----12--11----9--9--7--9--------------------|
D|--9--9--7--9----12--11----9--9--7--9------------5-------|
A|--7--7--5--7----10--9-----7--7--5--7--------5h7---------|
E|----------------------------------------5h7-------------|

e|--------------------------------------------------------|
B|--------------------------------------------------------|
G|--9--9--7--9----12--11----9--9--7--9----12b14-12--------|
D|--9--9--7--9----12--11----9--9--7--9--------------------|
A|--7--7--5--7----10--9-----7--7--5--7--------------------|
E|--------------------------------------------------------|

e|--------------------------------------------------------|
B|--------------------------------------------------------|
G|--9--9--7--9----12--11----9--9--7--9--------------------|
D|--9--9--7--9----12--11----9--9--7--9------------5-------|
A|--7--7--5--7----10--9-----7--7--5--7--------5h7---------|
E|----------------------------------------5h7-------------|

e|--------------------------------------------------------|
B|--------------------------------------------------------|
G|--9--9--7--9----12--11----9--9--7--9----12b14-12--------|
D|--9--9--7--9----12--11----9--9--7--9--------------------|
A|--7--7--5--7----10--9-----7--7--5--7--------------------|
E|--------------------------------------------------------|

e|--------------------------------------------------------|
B|--------------------------------------------------------|
G|--9--9--7--9----12--11----9--9--7--9--------------------|
D|--9--9--7--9----12--11----9--9--7--9------------5-------|
A|--7--7--5--7----10--9-----7--7--5--7--------5h7---------|
E|----------------------------------------5h7-------------|

(1.31)
e|-----------------------------|X3 e|-7----7----7---|
B|-----------------------------|   B|-10b--10b--10b-|
G|-----------------------------|   G|---------------|
D|-------5----7--7p5-----------|   D|---------------|
A|--5h7---------------7--7-----|   A|---------------|              
E|-----------------------------|   E|---------------|

(1.40)
e|--------------------------------------------------------|
B|--------------------------------------------------------|
G|--9--9--7--9----12--11----9--9--7--9----12b14-12--------|
D|--9--9--7--9----12--11----9--9--7--9--------------------|
A|--7--7--5--7----10--9-----7--7--5--7--------------------|
E|--------------------------------------------------------|

e|--------------------------------------------------------|
B|--------------------------------------------------------|
G|--9--9--7--9----12--11----9--9--7--9--------------------|
D|--9--9--7--9----12--11----9--9--7--9------------5-------|
A|--7--7--5--7----10--9-----7--7--5--7--------5h7---------|
E|----------------------------------------5h7-------------|

e|--------------------------------------------------------|
B|--------------------------------------------------------|
G|--9--9--7--9----12--11----9--9--7--9----12b14-12--------|
D|--9--9--7--9----12--11----9--9--7--9--------------------|
A|--7--7--5--7----10--9-----7--7--5--7--------------------|
E|--------------------------------------------------------|

e|--------------------------------------------------------|
B|--------------------------------------------------------|
G|--9--9--7--9----12--11----9--9--7--9--------------------|
D|--9--9--7--9----12--11----9--9--7--9------------5-------|
A|--7--7--5--7----10--9-----7--7--5--7--------5h7---------|
E|----------------------------------------5h7-------------|

e|--------------------------------------------------------|
B|--------------------------------------------------------|
G|--9--9--7--9----12--11----9--9--7--9----12b14-12--------|
D|--9--9--7--9----12--11----9--9--7--9--------------------|
A|--7--7--5--7----10--9-----7--7--5--7--------------------|
E|--------------------------------------------------------|

e|--------------------------------------------------------|
B|--------------------------------------------------------|
G|--9--9--7--9----12--11----9--9--7--9--------------------|
D|--9--9--7--9----12--11----9--9--7--9------------5-------|
A|--7--7--5--7----10--9-----7--7--5--7--------5h7---------|
E|----------------------------------------5h7-------------|

(2.08)
e|---------------------------------------------------------------------|
B|---------------------------------------------------------------------|
G|--9------9-7------7-5------5-4------4-9------9-7------7-5------5-4---|
D|--9------9-7------7-5------5-4------4-9------9-7------7-5------5-4---|
A|--7------7-5------5-3------3-2------2-7------7-5------5-3------3-2---|                
E|---------------------------------------------------------------------|

e|----------------------------------|
B|----------------------------------|
G|-4\5-----5/4------4\5------5/4----|
D|-4\5-----5/4------4\5------5/4----|
A|-2\3-----3/2------2\3------3/2----|                  
E|----------------------------------|

(2.37)
e|--------------------------------------------------------|
B|--------------------------------------------------------|
G|--9--9--7--9----12--11----9--9--7--9----12b14-12--------|
D|--9--9--7--9----12--11----9--9--7--9--------------------|
A|--7--7--5--7----10--9-----7--7--5--7--------------------|
E|--------------------------------------------------------|

e|--------------------------------------------------------|
B|--------------------------------------------------------|
G|--9--9--7--9----12--11----9--9--7--9--------------------|
D|--9--9--7--9----12--11----9--9--7--9------------5-------|
A|--7--7--5--7----10--9-----7--7--5--7--------5h7---------|
E|----------------------------------------5h7-------------|

e|--------------------------------------------------------|
B|--------------------------------------------------------|
G|--9--9--7--9----12--11----9--9--7--9----12b14-12--------|
D|--9--9--7--9----12--11----9--9--7--9--------------------|
A|--7--7--5--7----10--9-----7--7--5--7--------------------|
E|--------------------------------------------------------|

e|--------------------------------------------------------|
B|--------------------------------------------------------|
G|--9--9--7--9----12--11----9--9--7--9--------------------|
D|--9--9--7--9----12--11----9--9--7--9------------5-------|
A|--7--7--5--7----10--9-----7--7--5--7--------5h7---------|
E|----------------------------------------5h7-------------|

e|--------------------------------------------------------|
B|--------------------------------------------------------|
G|--9--9--7--9----12--11----9--9--7--9----12b14-12--------|
D|--9--9--7--9----12--11----9--9--7--9--------------------|
A|--7--7--5--7----10--9-----7--7--5--7--------------------|
E|--------------------------------------------------------|

e|--------------------------------------------------------|
B|--------------------------------------------------------|
G|--9--9--7--9----12--11----9--9--7--9--------------------|
D|--9--9--7--9----12--11----9--9--7--9------------5-------|
A|--7--7--5--7----10--9-----7--7--5--7--------5h7---------|
E|----------------------------------------5h7-------------|

(3.05)
e|-----------------------------|X3 e|-7----7----7---|
B|-----------------------------|   B|-10b--10b--10b-|
G|-----------------------------|   G|---------------|
D|-------5----7--7p5-----------|   D|---------------|
A|--5h7---------------7--7-----|   A|---------------|              
E|-----------------------------|   E|---------------|

SOLO   (3.14)

e|------------------------------------------------------------------------------------|
B|-------------------------------------------------------------------------8-10p8-----|
G|------------------------------4-4--4/7-7--7/9-9--9b-9b-7/9\7-7/9-9-9-8h9--------9---|
D|--5-4/5\4---5-4/5\4---4h5--7--------------------------------------------------------|
A|----------7---------7---------------------------------------------------------------|
E|------------------------------------------------------------------------------------|

e|------------------------------------------------------------------------------------|
B|-8-10-10b-10p8-10---10b-10p8-10-8----------------------------------------10b-10p8---|
G|------------------9----------------9b-9-7h9h7--7h9-9-9-9-9-9-9-9-9-9-9-9------------|
D|------------------------------------------------------------------------------------|
A|------------------------------------------------------------------------------------|
E|------------------------------------------------------------------------------------|

e|------------------------------------------------------------------------------------|
B|--10---8-10-10b-10p8-10---10b-10p8-10-8-10b-10b--8-10/8\10-8-8/15-------------------|
G|-----9------------------9---------------------------------------------------------4-|
D|-------------------------------------------------------------------5-4/5\4---4h5h7--|
A|---------------------------------------------------------------------------7--------|
E|------------------------------------------------------------------------------------|

e|------------------------------------------------------------------------------------|
B|--10b-10p8-10-8-10b-10b--8-10p8---8--8/12-------------------------------------------|
G|--------------------------------9-------------------------4-4-4/7-7/9-9-9/12-12-----|
D|------------------------------------------5-4/5\4---4h5h7---------------------------|
A|--------------------------------------------------7---------------------------------|
E|------------------------------------------------------------------------------------|

e|---------------12-12-----------15p12----15p12----15p12----15p12-15b-15-12/15\12-----|
B|---------12-12-------15b-15-12-------12-------12-------12-----------------------15--|
G|-12h14b-----------------------------------------------------------------------------|
D|------------------------------------------------------------------------------------|
A|------------------------------------------------------------------------------------|
E|------------------------------------------------------------------------------------|

e|-12------------12-----12------------------------------------------------------------|
B|----15p12---------15b----15p12----12-15---------------------------------------------|
G|----------14b------------------15-------14b-14b-14-12/14\12-----12-14b-14p12--------|
D|-------------------------------------------------------------14---------------------|
A|------------------------------------------------------------------------------------|
E|------------------------------------------------------------------------------------|

e|-15-12/15\12----12---------------12---------12--------------------------------------|
B|-------------15----15p12------12----15--15b----15p12--------------------------------|
G|-------------------------14b-------------------------14b-12-------12-14b-14b-12-12--|
D|------------------------------------------------------------12-14-----------------14|
A|------------------------------------------------------------------------------------|
E|------------------------------------------------------------------------------------|
END SOLO


(3.49)
e|--------------------------------------------------------|
B|--------------------------------------------------------|
G|--9--9--7--9----12--11----9--9--7--9----12b14-12--------|
D|--9--9--7--9----12--11----9--9--7--9--------------------|
A|--7--7--5--7----10--9-----7--7--5--7--------------------|
E|--------------------------------------------------------|

e|--------------------------------------------------------|
B|--------------------------------------------------------|
G|--9--9--7--9----12--11----9--9--7--9--------------------|
D|--9--9--7--9----12--11----9--9--7--9------------5-------|
A|--7--7--5--7----10--9-----7--7--5--7--------5h7---------|
E|----------------------------------------5h7-------------|

e|--------------------------------------------------------|
B|--------------------------------------------------------|
G|--9--9--7--9----12--11----9--9--7--9----12b14-12--------|
D|--9--9--7--9----12--11----9--9--7--9--------------------|
A|--7--7--5--7----10--9-----7--7--5--7--------------------|
E|--------------------------------------------------------|

e|--------------------------------------------------------|
B|--------------------------------------------------------|
G|--9--9--7--9----12--11----9--9--7--9--------------------|
D|--9--9--7--9----12--11----9--9--7--9------------5-------|
A|--7--7--5--7----10--9-----7--7--5--7--------5h7---------|
E|----------------------------------------5h7-------------|

e|--------------------------------------------------------|
B|--------------------------------------------------------|
G|--9--9--7--9----12--11----9--9--7--9----12b14-12--------|
D|--9--9--7--9----12--11----9--9--7--9--------------------|
A|--7--7--5--7----10--9-----7--7--5--7--------------------|
E|--------------------------------------------------------|

e|--------------------------------------------------------|
B|--------------------------------------------------------|
G|--9--9--7--9----12--11----9--9--7--9--------------------|
D|--9--9--7--9----12--11----9--9--7--9------------5-------|
A|--7--7--5--7----10--9-----7--7--5--7--------5h7---------|
E|----------------------------------------5h7-------------|

(4.17)
e|---------------------------------------------------------------------|
B|---------------------------------------------------------------------|
G|--9------9-7------7-5------5-4------4-9------9-7------7-5------5-4---|
D|--9------9-7------7-5------5-4------4-9------9-7------7-5------5-4---|
A|--7------7-5------5-3------3-2------2-7------7-5------5-3------3-2---|                
E|---------------------------------------------------------------------|

e|----------------------------------|
B|----------------------------------|
G|-4\5-----5/4------4\5------5/4----|
D|-4\5-----5/4------4\5------5/4----|
A|-2\3-----3/2------2\3------3/2----|                  
E|----------------------------------|

(4.46)
e|--------------------------------------------------------|
B|--------------------------------------------------------|
G|--9--9--7--9----12--11----9--9--7--9----12b14-12--------|
D|--9--9--7--9----12--11----9--9--7--9--------------------|
A|--7--7--5--7----10--9-----7--7--5--7--------------------|
E|--------------------------------------------------------|

e|--------------------------------------------------------|
B|--------------------------------------------------------|
G|--9--9--7--9----12--11----9--9--7--9--------------------|
D|--9--9--7--9----12--11----9--9--7--9------------5-------|
A|--7--7--5--7----10--9-----7--7--5--7--------5h7---------|
E|----------------------------------------5h7-------------|

e|--------------------------------------------------------|
B|--------------------------------------------------------|
G|--9--9--7--9----12--11----9--9--7--9----12b14-12--------|
D|--9--9--7--9----12--11----9--9--7--9--------------------|
A|--7--7--5--7----10--9-----7--7--5--7--------------------|
E|--------------------------------------------------------|

e|--------------------------------------------------------|
B|--------------------------------------------------------|
G|--9--9--7--9----12--11----9--9--7--9--------------------|
D|--9--9--7--9----12--11----9--9--7--9------------5-------|
A|--7--7--5--7----10--9-----7--7--5--7--------5h7---------|
E|----------------------------------------5h7-------------|

e|--------------------------------------------------------|
B|--------------------------------------------------------|
G|--9--9--7--9----12--11----9--9--7--9----12b14-12--------|
D|--9--9--7--9----12--11----9--9--7--9--------------------|
A|--7--7--5--7----10--9-----7--7--5--7--------------------|
E|--------------------------------------------------------|

e|--------------------------------------------------------|
B|--------------------------------------------------------|
G|--9--9--7--9----12--11----9--9--7--9--------------------|
D|--9--9--7--9----12--11----9--9--7--9------------5-------|
A|--7--7--5--7----10--9-----7--7--5--7--------5h7---------|
E|----------------------------------------5h7-------------|

(5.14)
e|-----------------------------|X3 e|-7----7----7---|
B|-----------------------------|   B|-10b--10b--10b-|
G|-----------------------------|   G|---------------|
D|-------5----7--7p5-----------|   D|---------------|
A|--5h7---------------7--7-----|   A|---------------|              
E|-----------------------------|   E|---------------|

OUTRO: (5.23) 
pretty much the same as the solo youll be able to play it if you know the solo and listen to the song  
comments
print report bad tab
1 comment total.
0 reply
simmons100 wrote on June 6 2007, 09:48 pm

nice

I want to post or [tab]
guest
You may want to rate the tab now too:
select rating
Please do not post tabs as comments. Select "correction" instead!