Oops, an error
Loading. Please wait.

Sabbath Bloody Sabbath Tab

ver1
ver1

Album

Whole song

More versions @911Tabs.com
38,968 views 99 this week
2 commentsread comments
1 2 3 4 5
worth learning
x 3
Autoscroll
+/-
esc
set tempo
stop
WARNING: You are trying to view
                                    content from Ultimate-Guitar.com
                                    in an unauthorized application,
                                    which is prohibited.

                                    Please use an official Ultimate
                                    Guitar Tabs application for iPhone,
                                    iPad or Android to access legitimate
                                    chords, guitar, bass, and drum tabs
                                    from Ultimate-Guitar.com database.

                                    Type "ultimate guitar tabs" in Apple
                                    App Store's or Android Market's
                                    search to find the application.
Artist:Black Sabbath
Album:Sabbath, Bloody Sabbath


Track Listing:

1.Sabbath, Bloody Sabbath
2.A National Acrobat
3.Fluff
4.Sabbra Cadabra
5.Killing Youself To Live
6.Who Are You?
7.Looking For Taday
8.Spiral Architect


1.Sabbath, Bloody Sabbath

Main Riff:
|----------------------------------------------|
|----------------------------------------------|
|----------------------------------------------|
|--7/9-xx-9-xx-7/9-xx-9-xx-5--7--9--12\9-9-9---|
|--5/7-xx-7-xx-5/7-xx-7-xx-3--5--7--10\7-7-7---|
|----------------------------------------------|

Chorus 1:
Guitar 1
|--7-5-7-5-2-3--3-3--------3\1-4---4---4---4---4---4--3---3---3---3-|
|--5-3-5-3-0-0--0-0--------3\1-1---1---1---1---1---1--0---0---0---0-|
|--7-5-7-5-2-0--0-0-----0h4----2---2---2---2---2---2--0---0---0---0-|
|--5-3-5-3-0-0--0-0--0h2-------2---2---2---2---2---2--0---0---0---0-|
|--x-x-x-x-x-2--2-2-----------------------------------2---2---2---2-|
|--x-x-x-x-x-3--3-3-----------------------------------3---3---3---3-|

|----------------|
|----------------|
|---------7---7--|
|----5-3/7-3/7-7-|
|-5h7------------|
|----------------|

Guitar 2
|---7-5-7-5-2-3--3-3--------3\1-4---4---4---4---4---4--3---3---3---3-|
|---5-3-5-3-0-0--0-0--------3\1-1---1---1---1---1---1--0---0---0---0-|
|---7-5-7-5-2-0--0-0-----0h4----2---2---2---2---2---2--0---0---0---0-|
|---5-3-5-3-0-0--0-0--0h2-------2---2---2---2---2---2--0---0---0---0-|
|---x-x-x-x-x-2--2-2-----------------------------------2---2---2---2-|
|---x-x-x-x-x-3--3-3-----------------------------------3---3---3---3-|

|-17-15----------------|
|------17-15-----------|
|-----------17-17/19~--|
|----------------------|
|----------------------|
|----------------------|

Guitar 1
|4-----4-----4-----4-----4------3---3---3---3---------------------|
|1-----1-----1-----1-----1------0---0---0---0---------------------|
|2-----2-----2-----2-----2------0---0---0---0-------4-------------|
|2-----2-----2-----2-----2------0---0---0---0----5-7--7-----------|
|-------------------------------2---2---2---2-5/7-----------------|
|-------------------------------3---3---3---3---------------------|

Guitar 2
|4-----4-----4-----4-----4------3---3---3---3----------------|
|1-----1-----1-----1-----1------0---0---0---0--17------------|
|2-----2-----2-----2-----2------0---0---0---0----------------|
|2-----2-----2-----2-----2------0---0---0---0----------------|
|-------------------------------2---2---2---2----------------|
|-------------------------------3---3---3---3----------------|

Guitars 1 and 2
|0---0---0---0---0---0-------------------------|
|1---1---1---1---1---1-------------------------|
|2---2---2---2---2---2-------------------------|
|2---2---2---2---2---2----7-7-7-7--7--7-7------|
|-------------------------5-5-5-5--5--5-5------|
|----------------------------------------------|

Guitar 1
|--7-5-7-5-2-3--3-3--------3\1-4---4---4---4---4---4--3---3---3---3-|
|--5-3-5-3-0-0--0-0--------3\1-1---1---1---1---1---1--0---0---0---0-|
|--7-5-7-5-2-0--0-0-----0h4----2---2---2---2---2---2--0---0---0---0-|
|--5-3-5-3-0-0--0-0--0h2-------2---2---2---2---2---2--0---0---0---0-|
|--x-x-x-x-x-2--2-2-----------------------------------2---2---2---2-|
|--x-x-x-x-x-3--3-3-----------------------------------3---3---3---3-|

|----------------|
|----------------|
|---------7---7--|
|----5-3/7-3/7-7-|
|-5h7------------|
|----------------|

Guitar 2
|---7-5-7-5-2-3--3-3--------3\1-4---4---4---4---4---4--3---3---3---3-|
|---5-3-5-3-0-0--0-0--------3\1-1---1---1---1---1---1--0---0---0---0-|
|---7-5-7-5-2-0--0-0-----0h4----2---2---2---2---2---2--0---0---0---0-|
|---5-3-5-3-0-0--0-0--0h2-------2---2---2---2---2---2--0---0---0---0-|
|---x-x-x-x-x-2--2-2-----------------------------------2---2---2---2-|
|---x-x-x-x-x-3--3-3-----------------------------------3---3---3---3-|

|-17-15----------------|
|------17-15-----------|
|-----------17-17/19~--|
|----------------------|
|----------------------|
|----------------------|

Guitars 1 and 2
|0---0---0---0---0---0-------------------------|
|1---1---1---1---1---1-------------------------|
|2---2---2---2---2---2-------------------------|
|2---2---2---2---2---2----7-7-7-7--7--7-7------|
|-------------------------5-5-5-5--5--5-5------|
|----------------------------------------------|

Solo:
----------------------------------------------------------------------------------------------|
-15-15p12--15-15p12----------------------------15-15p12--15-15p12-----------------------------|
-15-15p12--15-15p12---------------14-12--------15-15p12--15-15p12---------------14-12---------|
---------14--------14-14~--14-12-------12-14~~---------14--------14-14~~-14-12--------14-14~~-|
--------------------------------14--------------------------------------------14--------------|
----------------------------------------------------------------------------------------------|


-----------------------------------------------------------------------------|
------------------------------------------15^(17)-15-12----------------------|
-14^(16`14)-12-14p12-----14^(16`14)-12-----------------14^(16`14)-12---------|
--------------------14~~--------------14~~--------------------------14~~-----|
-----------------------------------------------------------------------------|
-----------------------------------------------------------------------------|


-17-17-17p15---17-17-17-17p15------------------------------------------------------------|
-17-17-17p15---17-17-17-17p15----15^(17)-15-12-------------------------------------------|
------------16---------------16---------------14^(16`14)-12------------------------------|
-----------------------------------------------------------14~~~~~~~~~~~~~~~~~~~~--------|
-----------------------------------------------------------------------------------------|
-----------------------------------------------------------------------------------------|

Play Before Heavy Part:
-------------------------------------------------------------------------------------------|
-------------------------------------------------------------------------------------------|
-------------------------------------------------------------------------------------------|
-14--14-12-14--14-12-14--12-11-9-7-5-7--14--14-12-14--14-12-14--12-11-9-7-5-7-4------------|
-12--12-10-12--12-10-12--10--9-7-5-3-5--12--12-10-12--12-10-12--10--9-7-5-3-5-2-{Let ring}-|
-------------------------------------------------------------------------------------------|

Heavy Part
-----------------------------------------------------------------------------|
-----------------------------------------------------------------------------|
-----------------------------------------------------------------------------|
-----------------------------------------------------------------------------|
-----5---5---5---5-------5---5-6------5---5---5---5-------5---5-6------------|
-0-0-3p0-3p0-3p0-3p0-0-0-3p0-3-4--0-0-3p0-3p0-3p0-3p0-0-0-3p0-3-4------------|
(..............pm.............)  (..............pm.............)

-----------------------------------------------------------------------------------------|
-----------------------------------------------------------------------------------------|
-----------------------------------------------------------------------------------------|
-7/9-9-9\7-9-9-12-11-9--7/9-9-9\7-9-9-12-11-9--7/9-9-9\7-9-9-12-11-9-7-4-----------------|
-5/7-7-7\5-7-7-10--9-7--5/7-7-7\5-7-7-10--9-7--5/7-7-7\5-7-7-10--9-7-5-2-{Let Ring}------|
-----------------------------------------------------------------------------------------|


End solo:
-------------------------------------------------------------------------------|
-------------------------------------------------------------------------------|
-------------------------------------------------------------------------------|
-------------------------------------------------------------------------------|
-0-2-2-2p0-2-2--0-2-2-2p0--2-2--0-2-2-2p0--2-2--0-2-2-2p0--2-2--0-2-2-2p0--2-2-|
----------2--------------2---------------2---------------2---------------2-----|

-----------------------------------------------------------------------------|
-----------------------------------------------------------------------------|
-----------------------------------------------------------------------------|
-(14-\-\-\-\-\-\-\-\-\-\-\-\-\-\-\-\-\-\-\-\-\-\-\-\-\-\-\-\-\-\-\-\-\-\-3)--|
-(14-\-\-\-\-\-\-\-\-\-\-\-\-\-\-\-\-\-\-\-\-\-\-\-\-\-\-\-\-\-\-\-\-\-\-3)--|
-----------------------------------------------------------------------------|
(............................pick scrape down neck.........................)

----------------------------------------------------------|
-------------------------7-9^(11`9-11`9-11`9-11`9-11`9)---|
----------------------7-9---------------------------------|
-----5h7/9-7-----5h7/9------------------------------------|
--5h7---------5h7-----------------------------------------|
----------------------------------------------------------|

----------------------------------------------------------------------------------|
-7-9-----------------------------7~~----------------------------------------------|
-----7~-7^(9`7)-4-7-7^(9`7)-4----7~~----------------------------------------------|
-----------------------------7-------(14-\-\-\-\-\-\-\-\-\-\-\-\-\-\-\-\-\-3)-----|
------------------------------5~-----(14-\-\-\-\-\-\-\-\-\-\-\-\-\-\-\-\-\-3)-----|
----------------------------------------------------------------------------------|
                        (begin fade)  (........pick scrape down neck........)

--------------------------------------------------------------|
--------------------------------------------------------------|
-(19//21)--(19//21)-----------(19//21)------------------------|
-(19//21)--(19//21)-(21\\19)--(19//21)-(21\\19)-(21\\19)------|
--------------------(21\\19)-----------(21\\19)-(21\\19)------|
--------------------------------------------------------------|
(...........................pick scrapes.................)

2.A National Acrobat

Intro Fig.1
Guitar 1
1-|----------------------------------------------------|
2-|----------------------------------------------------|
3-|----------------------------------------------------|
4-|-------------------2-1~-------------6-4--------2-1~-|
5-|-2-4-4-4~--2-4-2-4-------2-4-4-4-4------2--0-2------| x4
6-|----------------------------------------------------|

Guitar 2
1-|-----------------------------------------------------|
2-|-------------------9-7~-------------10-9-------------|
3-|-8-9-9-9~--8-9-8-9-------8-9-9-9-9-------8----8-9-8~-|
4-|--------------------------------------------9--------|
5-|-----------------------------------------------------| x2
6-|-----------------------------------------------------|


Verse Fig.2
1-|-------------------------|
2-|-------------------------|
3-|-6--6--9--9--------------|
4-|-6--6--9--9--9--9--4--4--|
5-|-4--4--7--7--9--9--4--4--|
6-|-------------7--7--2--2--| (then play Fig.1 once) x2

|-------------------------|
|-------------------------|
|-------------------------|
|-7--7--6--6--2--2--4--4--|
|-7--7--6--6--2--2--4--4--|
|-5--5--4--4--0--0--2--2--| (then play Fig.1 once) x2


Fig.3
(This is played over and over again through
                    vocals and a guitar solo)
1-|---------------------------------------------|
2-|---------------------------------------------|
3-|-----------------------------6\----------10\-|
4-|---------------2-------------6\----------11\-|
5-|-2-4---2-4-2-4---4-2---2-4-------4-4-4-4-----|
6-|---------------------4-----------------------|
                                    PM. . .


Fig.4
Two Guitars
1-|--------------|    |------------------------------------|
2-|--------------|    |------------------------------------|
3-|-4h6~-4~------|    |------------------------------------|
4-|---------4~-2~|    |-6-6-6-6--6-6-6-6--6-6-6-6--6-6-6-6-|
5-|-2h4~-2~------| x3 |-6-6-6-6--6-6-6-6--6-6-6-6--6-6-6-6-|
6-|---------2~-0-|    |-4-4-4-4--4-4-4-4--4-4-4-4--4-4-4-4-|
                        PM. . .  . . . .  . . . .  . . . .


Fig.5
1-|----------------------------------------------|
2-|----------------------------------------------|
3-|------------------------6---------------------|
4-|-----6-6/8-6------6-6/8----------6-6/8-6------|
5-|-8-9----------8-9---------9--8-9---------9-8--| x2
6-|----------------------------------------------|

|----------------------------------------------|
|------------------------7---------------------|
|-----6-6/8-6------6-6/8----------6-6/8-6------|
|-8-9----------8-9---------9--8-9---------9-8--|
|----------------------------------------------|
|----------------------------------------------|

|----------------------------------------------|
|----------------------------------------------|
|------------------------6---------------------|
|-----6-6/8-6------6-6/8----------6-6/8-6------|
|-8-9----------8-9---------9--8-9---------9-8--|
|----------------------------------------------|


Fig.6
1-|-------------|
2-|-------------|
3-|------6---4--|
4-|-6----6---4--|
5-|-6----4---2--| x4
6-|-4-----------|


Fig.7
1-|-----------------------------------------------------|
2-|-----------------------------------------------------|
3-|-------------------------------------6b8-4---6b8-4---|
4-|---6~---4-6---4-6--6-6p4------6~---4-------6-------6-|
5-|------6-----6------------6-------6-------------------| x2
6-|-4--------------------------4------------------------|


Fig.8
1-|-------------------------------|
2-|-------------------------------|
3-|-------------------------------|
4-|-4-6-6-6-6-6-4-6-6-6-4---------|
5-|-----------------------6-4-----| x8
6-|---------------------------6-4-|


Fig.9
1-|-----------------|
2-|-----------------|
3-|-----------------|
4-|-4-4-4-4-4-4-4-4-|
5-|-2-1-2-1-2-1-2-1-|
6-|-----------------|

4.Fluff

 Gtr.I
|------------2------------------2-------|----------2-----------------2-------|
|--------3------3------------3-----3----|-------0-----0-----------0-----0----|
|----2--------------2-----2-----------2-|----0-----------0-----0-----------0-|
|-0--------------------0----------------|-0-----------------0----------------|
|---------------------------------------|------------------------------------|
|---------------------------------------|------------------------------------|

 Gtr.I
|------------2------------------2-------|----------2-----------------2-------|
|--------3------3------------3-----3----|-------0-----0-----------0-----0----|
|----2--------------2-----2-----------2-|----0-----------0-----0-----------0-|
|-0--------------------0----------------|-0-----------------0----------------|
|---------------------------------------|------------------------------------|
|---------------------------------------|------------------------------------|
|				  	|	 			     |
|Gtr.II					|				     |
|---------------------------------------|------------------------------------|
|---------------------------------------|------------------------------------|
|---------------------------------------|------------------------------------|
|-4-5-7------------(7)-------------7/9--|------------------------------------|
|---------------------------------------|-7--------------(7)-----------------|
|---------------------------------------|------------------------------------|

 Gtr.I
|----------2-----------------2--------|----------2-----------------2-----3--|
|-------3-----3-----------3-----3-----|-------0-----0-----------0-----0-----|
|----2-----------2-----2-----------2--|----0-----------0-----0--------------|
|-0-----------------0-----------------|-0-----------------0-----------------|
|-------------------------------------|-------------------------------------|
|-------------------------------------|-------------------------------------|
|                                     |                                     |
|Gtr.II                               |                                     |
|-------------------------------------|-------------------------------------|
|-------------------------------------|-------------------------------------|
|-------------------------------------|-------------------------------------|
|-4-5-7------------(7)-----------7/9--|---------------------------------7-6-|
|-------------------------------------|-7----------------(7)----------------|
|-------------------------------------|-------------------------------------|

 Gtr.I
|------------3------------------3-------|----------3-----------------3-------|
|--------0------0------------0-----0----|-------2-----2-----------2-----2----|
|----0--------------0-----0-----------0-|----2-----------2-----2-----------2-|
|-2--------------------2----------------|-2-----------------2----------------|
|---------------------------------------|------------------------------------|
|---------------------------------------|------------------------------------|
|					|				     |
|Gtr.II                 		|	                             |
|---------------------------------------|------------------------------------|
|---------------------------------------|------------------------------------|
|---------------------------------------|------------------------------------|
|-5---------(5)--------7--------7/9-----|-7----------------(7)-----------7-6-|
|---------------------------------------|------------------------------------|
|---------------------------------------|------------------------------------|
|					|				     |
|Gtr.III				|				     |
|------0--------0--------0--------0-----|-------0-------0-------0-------0----|
|----0---0----0---0----0---0----0---0---|-----0---0---0---0---0---0---0---0--|
|---7-----7--7-----7--7-----7--7-----7--|----9-------9-------9-------9-------|
|--5--------5--------5--------5---------|---7-------7-------7-------7--------|
|---------------------------------------|--0-------0-------0-------0---------|
|---------------------------------------|------------------------------------|

 Gtr.I
|------------3------------------3-------|----------3-----------------3-------|
|--------0------0------------0-----0----|-------2-----2-----------2-----2----|
|----0--------------0-----0-----------0-|----2-----------2-----2-----------2-|
|-2--------------------2----------------|-2-----------------2----------------|
|---------------------------------------|------------------------------------|
|---------------------------------------|------------------------------------|
|					|				     |
|Gtr.II                 		|	                             |
|---------------------------------------|------------------------------------|
|---------------------------------------|------------------------------------|
|---------------------------------------|------------------------------------|
|-5---------(5)--------4----------------|------------------------------------|
|-------------------------------5-------|-5/7--------------(7)---------------|
|---------------------------------------|------------------------------------|
|					|			  	     |
|Gtr.III				|			     	     |
|------0--------0--------0--------0-----|-------0-------0-------0-------0----|
|----0---0----0---0----0---0----0---0---|-----0---0---0---0---0---0---0---0--|
|---7-----7--7-----7--7-----7--7-----7--|----9-------9-------9-------9-------|
|--5--------5--------5--------5---------|---7-------7-------7-------7--------|
|---------------------------------------|--0-------0-------0-------0---------|
|---------------------------------------|------------------------------------|

 Gtr.I
|------------2------------------2-------|----------2-----------------2-------|
|--------3------3------------3-----3----|-------0-----0-----------0-----0----|
|----2--------------2-----2-----------2-|----0-----------0-----0-----------0-|
|-0--------------------0----------------|-0-----------------0----------------|
|---------------------------------------|------------------------------------|
|---------------------------------------|------------------------------------|
|					|	 		     	     |
|Gtr.II					|				     |
|---------------------------------------|------------------------------------|
|---------------------------------------|------------------------------------|
|---------------------------------------|------------------------------------|
|-4-5-7------------(7)-------------7/9--|------------------------------------|
|---------------------------------------|-7--------------(7)-----------------|
|---------------------------------------|------------------------------------|
|				 	|				     |
|Gtr.III				|Gtr.IV    			     |
|---------------------------------------|------------------------------------|
|---------------------------------------|--------------10-----10\8-----------|
|-------------------9-\-7---------------|---------9/11----11--11\9-----------|
|----------------9-(9)\-7---------------|------------------------------------|
|--------------0-------(0)--------------|------------------------------------|
|---------------------------------------|------------------------------------|

 Gtr.I
|----------2-----------------2--------|----------2-----------------2-----3--|
|-------3-----3-----------3-----3-----|-------0-----0-----------0-----0-----|
|----2-----------2-----2-----------2--|----0-----------0-----0--------------|
|-0-----------------0-----------------|-0-----------------0-----------------|
|-------------------------------------|-------------------------------------|
|-------------------------------------|-------------------------------------|
|                                     |                                     |
|Gtr.II                               |                                     |
|-------------------------------------|-------------------------------------|
|-------------------------------------|-------------------------------------|
|-------------------------------------|-------------------------------------|
|-4-5-7------------(7)-----------7/9--|---------------------------------7-6-|
|-------------------------------------|-7----------------(7)----------------|
|-------------------------------------|-------------------------------------|
|				      |					    |
|Gtr.III			      |	                  		    |
|-------------------------------------|-------------------------------------|
|-------------------------------------|-------------------------------------|
|-------------------9-\-7-------------|-------------------------------------|
|----------------9-(9)\-7-------------|-------------------------------------|
|--------------0-------(0)------------|-------------------------------------|
|-------------------------------------|-------------------------------------|
|				      |				            |
|Gtr.IV				      |					    |
|-------------------------------------|-------------------------------------|
|---------12\10----10/12\10-----------|----------------10--12---------------|
|-------------------------------------|----------9/11----------11\9---------|
|-------------------------------------|-------------------------------------|
|-------------------------------------|-------------------------------------|
|-------------------------------------|-------------------------------------|


 Gtr.I
|------------3------------------3-------|----------3-----------------3-------|
|--------0------0------------0-----0----|-------2-----2-----------2-----2----|
|----0--------------0-----0-----------0-|----2-----------2-----2-----------2-|
|-2--------------------2----------------|-2-----------------2----------------|
|---------------------------------------|------------------------------------|
|---------------------------------------|------------------------------------|
|					|				     |
|Gtr.II                                 |	                             |
|---------------------------------------|------------------------------------|
|---------------------------------------|------------------------------------|
|---------------------------------------|------------------------------------|
|-5---------(5)--------7--------7/9-----|-7----------------(7)-----------7-6-|
|---------------------------------------|------------------------------------|
|---------------------------------------|------------------------------------|
|					|				     |
|Gtr.III			 	|			 	     |
|------0--------0--------0--------0-----|-------0-------0-------0-------0----|
|----0---0----0---0----0---0----0---0---|-----0---0---0---0---0---0---0---0--|
|---7-----7--7-----7--7-----7--7-----7--|----9-------9-------9-------9-------|
|--5--------5--------5--------5---------|---7-------7-------7-------7--------|
|---------------------------------------|--0-------0-------0-------0---------|
|---------------------------------------|------------------------------------|
|					|				     |
|Gtr.IV				   	|				     |
|---------------------------------------|------------------------------------|
|---------------------------------------|------------------------------------|
|---------------------------------------|-------(11)--11--(11)---------------|
|---------------------------------------|------------------------------------|
|---------------------------------------|------------------------------------|
|---------------------------------------|------------------------------------|

 Gtr.I
|------------3------------------3-------|----------3-----------------3-------|
|--------0------0------------0-----0----|-------2-----2-----------2-----2----|
|----0--------------0-----0-----------0-|----2-----------2-----2-----------2-|
|-2--------------------2----------------|-2-----------------2----------------|
|---------------------------------------|------------------------------------|
|---------------------------------------|------------------------------------|
|					|				     |
|Gtr.II                 		|	                             |
|---------------------------------------|------------------------------------|
|---------------------------------------|------------------------------------|
|---------------------------------------|------------------------------------|
|-5---------(5)--------4----------------|------------------------------------|
|-------------------------------5-------|-5/7--------------(7)---------------|
|---------------------------------------|------------------------------------|
|					|				     |
|Gtr.III				|				     |
|------0--------0--------0--------0-----|-------0-------0-------0-------0----|
|----0---0----0---0----0---0----0---0---|-----0---0---0---0---0---0---0---0--|
|---7-----7--7-----7--7-----7--7-----7--|----9-------9-------9-------9-------|
|--5--------5--------5--------5---------|---7-------7-------7-------7--------|
|---------------------------------------|--0-------0-------0-------0---------|
|---------------------------------------|------------------------------------|

Gtr.I
|------------3------------------2-------|----------3--------2--------3-------|
|--------3------3------------3-----3----|-------0-----0--------0--------0----|
|----4-------------4------4-----------4-|----0-----------0-----------------0-|
|-5--------------------4----------------|-2-----------------------2----------|
|---------------------------------------|------------------------------------|
|---------------------------------------|------------------------------------|

4.Sabbra Cadabra

Tune down 1 1/2 steps (C#)

|--------3---------------3--------------3----------------3----------|
|----3h5---5-5-5-----3h5---5-5-5----3h5--------------3h5------------|
|--4---------------4--------------4-------432------4-------432------|
|---------------------------------------------2-2---------------2-2-|
|-------------------------------------------------------------------|
|-------------------------------------------------------------------|

Solo:
|----------------------------------------------------------|
|------------------------------------------8~--------------|
|------------------------------9-9---9-7-9----9-7----------|
|-7^~~~~---9\7--5-7-5-7-5--7/9-----------------------------|
|----------------------------------------------------------|
|----------------------------------------------------------|
|                                                          |
|----------------------------------------------------------|
|--------------------------------------8^------------------|
|------------------------------9-9-9-9-------9-7-----------|
|-7^~~~~---9\7--5-7-5-7-5--7/9-----------------------------|
|----------------------------------------------------------|
|----------------------------------------------------------|

|----------------------------------------------------------|
|---------------------------------------------8------------|
|-----7-------------------------------9-9-------9----------|
|-7/9---9\7--7-5-7^~~~~--7-5-7-5--7h9-----7h9--------------|
|----------------------------------------------------------|
|----------------------------------------------------------|

|----------------------|
|----------------------|
|----------------------|
|-9\7-5-7-5-7~~-5------|
|----------------------|
|----------------------|

				varies:
|----------------------------------------|
|----------------------------------------|
|--7--9--9--7--9--9---7-6-7-6-7-6--7-9-9-|
|--7--9--9--7--9--9---7-6-7-6-7-6--7-9-9-|
|--5--7--7--5--7--7---5-4-5-4-5-4--5-7-7-|
|----------------------------------------|
|                                        ||||||||||
|-----12-12-------12-12--10-9-10-9-10-9-----------|
|--15-15^15^---15-15^15^----------------12p10-----|
|---------------------------------------------9-9-|

    "feel so happy sionce i met that girl..."
|----------------------------------------|
|----------------------------------------|
|--7--9--9--7--9--9---7-7-7-7-7-7--7-9-9-|
|--7--9--9--7--9--9---7-7-7-7-7-7--7-9-9-|
|--5--7--7--5--7--7---5-5-5-5-5-5--5-7-7-|
|----------------------------------------|


"some1 to love me..."
|---------------|---------------|
|---------------|---------------|
|---------------|---------------|
|-7----------7--|-9-------------|
|-7----------7--|-9-------------|
|-5----------5--|-7-------------|


"lonely lady..make love all nite long"
|---0-----3-----0-----3-----------|
|-----0-----0-----0-----0---------|
|---------------------------------|
|-2-----2-----2-----2-----2-0-1-2-|
|---------------------------------|
|---------------------------------|

"I dont want to leave you..."
		    repeat:     "Anymore...no more"
|------------|------------|--------------------------------|
|------------|------------|--------------------------------|
|-5----------|-4----------|--------------------------------|
|-5----------|-4----------|-2--2-2---x-x-x-7-7-7--7-7\-----|
|-3----------|-2----------|-2--2-2---x-x-x-7-7-7--7-7\-----|
|------------|------------|-0--0-0---x-x-x-5-5-5--5-5\-----|

			slide|---|
|------------------------------------------------|
|------------------------------------------------|
|------------7p5---7--5-------454-0---0-4-5\4----|
|----7-7p5-7-7p5---7--5-------454-0-5-0-4-5\4----|
|----7-7p5-7-----7------7-----------5------------|
|--0----------------------0-------------------0--|
this is the little thing at the end.

5.killing Yourself To Live

Tuning:C#/F#/B/E/G#/C#
                         Submitted by:Dillon Shifflett
Intro:
----------------------------------------------------|
----------------------------------------------------|
-------------------5--5-----------------------------|
------------7--7---5--5---7------------5--7-7-------|
------3-----7--7---3--3---7--------0---3--5-5---7---|
-0--3---3---5--5----------5----0-3--------------5---|

Verse:
---------------------------------|
------------------------------3--|
------------------------------2--|
----3-----2-----3--------0h2-----|
-5-----5-----5-----5--3----------|
---------------------------------|

---------------------------------|
---------------------------------|
----------------------5~~--------|
----3-----2-----5----------------|
-5-----5-----5-----5-------------|
---------------------------------|

Chorus:
-----------------------------------------------------|
-----------------------------------------------------|
-----------------------------------------------------|
--------------------------10-------------------------|
-12-12-12-12--12--10--10--8--10--9-9-9-9--9--8--8--7-|
-10-10-10-10--10--8---8------8---7-7-7-7--7--6--6--5-|

6.Who Are you?

tune down 1 1/2 steps low to high (C# F# B E)

||------------------------------------------------------------|
||------9-8---------9-8-9-8---------9-8---------9-8-9-8-------|
||-8-----------8---------------8-----------8---------------6--|
||------------------------------------------------------------|

--------------------------------------------------|------------|
--7-6---------7-6-7-6---------7-6---------7-6-7-6-|------------|
---------6---------------6-----------6------------|-6--6--6--8-|
--------------------------------------------------|------------|

--------------------------------------||That's all folks
--------------------------------------||
----8----8----6--6--6--8----8----8----||
--------------------------------------||

7.Looking For Today

|---------------------------------------------7-5----------|
|-----7--7-5-4-------4---4-5-----7--7-5-4---------7-5------|
|-0-0----------4/5-5---5-----0-0----------5-5--------------|
|----------------------------------------------------------|

|----------------------------------------------7-5---------|
|-----7----5-4-------4---4-5-----7--7-5-4----------7-5-----|
|-0-0----0-----4/5-5---5-----0-0----------5--5-------------|
|----------------------------------------------------------|

Chorus:
|-----------------------------5----------5-----------------|
|--------------------5---7--7---7-5-7--7---7-5-7-5---------|
|-7--7--7-5-7-7--7-5---7-----------------------------------|
|----------------------------------------------------------|

|--------------------5-3-----------------------------------|
|-5--5-5---3-5-5-5-3-----5-3-7-7-7-7-7-7-7---5-------------|
|--------5---------------------------------7---5-7---------|
|----------------------------------------------------------|

Bridge:
|----------------------------------------------------------|
|----------------------------------------------------------|
|-5--5----------------5--5-5--------------------------5----|
|-------8---7---6-6-8--------8-8-8-7-7-7-7-6--5-6-5-7------|
                         use different variation of the above

8.Spiral Architect

intro                    x4                          x4

C#||------------0---------||--||------------0---------||
G#||*--------6-----6-----*||--||*--------8-----8-----*||
E ||------7-----------7---||--||------9-----------9---||
B ||---0------------------||--||---0------------------||
F#||*--------------------*||--||*--------------------*||
C#||----------------------||--||----------------------||

                            x4

C#||--------------8---------||
G#|*-----------6-----6-----*||
E ||------7-------------7---||
B ||---0--------------------||
F#|*-----------------------*||
C#||------------------------||

C#|--------------------------------------------------------------------------|
G#|----------0-----------------0-----------------0-------------------0-------|
E |-------6-----6-----------4-----4-----------6-------6-----------4-----4----|
B |----7-----------7-----5-----------5-----7-------------7-----5-----------5-|
F#|-0-----------------0-----------------0-------------------0----------------|
C#|--------------------------------------------------------------------------|


                          x4

C#||------------8---------||
G#||*--------6-----6-----*||
E ||------7-----------7---||
B ||---0------------------||
F#||*--------------------*||
C#||----------------------||

Opening Riff

|-------------------|-----------------|
|-------------------|-----------------|
|-------------------|-----------------|
|---7-7-7-7-7-7-7-7-|-7-7-7-7-7-7-7---|
|-7-5-5-5-5-5-5-5-5-|-5-5-5-5-5-5-5-7-|
|-5-----------------|---------------5-|

|-------------|
|-------------|
|---7---------|
|-7-7---------|
|-7-5---------|
|-5-----------|


Cool Part
|-----------------|------------------------|
|-----------------|------------------------|
|-----------------|------------------------|
|-----0-----------|-------------------0----|
|-0-----3-0-3-2-0-|-2-0---0-----2-3--0-----|
|-----------------|-----3---3-0-----3------|

Verse

|-------------------|-------------|
|-------------------|-------------|
|-7---7-------------|--------7----|
|-7---7-----7-7-----|-10--9--7----|
|-5---5-----7-7-----|-10--9--5----|
|-----------5-5-----|--8--7-------|

Chorus

|-------------|
|-------------|
|-7--7--7--7--|
|-7--7--7--7--|
|-5--5--5--5--|
|-------------|
comments
We did not receive enough feedback on this tab! Please rate:
print report bad tab
1 2 3 4 5
2 comments total.
0 reply
XxMetalFacexX wrote on March 16 2009, 08:57 pm

what tuning? (too me it sounds like D flat)

0 reply
XxMetalFacexX wrote on March 16 2009, 08:58 pm

for sabbath bloody sabbath

I want to post or [tab]
guest
You may want to rate the tab now too:
select rating
Please do not post tabs as comments. Select "correction" instead!