Oops, an error
Loading. Please wait.

Sabotage Tab

16,607 views 9 this week
3 commentsread comments
1 2 3 4 5
excellent!
x 6
Autoscroll
+/-
esc
set tempo
stop
Contributor
WARNING: You are trying to view
                                    content from Ultimate-Guitar.com
                                    in an unauthorized application,
                                    which is prohibited.

                                    Please use an official Ultimate
                                    Guitar Tabs application for iPhone,
                                    iPad or Android to access legitimate
                                    chords, guitar, bass, and drum tabs
                                    from Ultimate-Guitar.com database.

                                    Type "ultimate guitar tabs" in Apple
                                    App Store's or Android Market's
                                    search to find the application.
The whole album is in C# tuning


Hole In The Sky
Black Sabbath - Sabotage (1975)


|---------------------------------------||-------|
|---------------------------------------||-------|
|---------------------------------5--7--||--7--5-|
|------7p5-7~----7p5-7~----7p5----5--7--||--7--5-|
|--0-0---------0---------0-----0--3--5--||--5--3-|
|---------------------------------------||-------|


|--------------------------------------------------|
|--------------------------------------------------|
|------5^-5--------------------5^-5----------------|
|-----------5^-5--------------------5^-5-----------|
|--0-0-----------5^-5---5--0-0-----------5^-5---5--|
|--------------------------------------------------|

chorus:
|---------------------------------------------------|------------|
|--9---9p8-----9---9p8----11--11p10----11--11p10----|------------|
|-10--10p8----10--10p8----12--12p10----12--12p10----|------------|
|----------10----------10-----------10-----------10-|-10-10-10-9-|
|---------------------------------------------------|-10-10-10-9-|
|---------------------------------------------------|--8--8--8-7-|

solo:
|--------------------------------------------------------|
|--------------------------------------------------------|
|--7^-7^-7^------7p5-7-7^-7^-7^------7p5---^7-^7-^7-5----|
|----------------------------------------7------------7--|
|--------------------------------------------------------|
|--------------------------------------------------------|

|------5------5------5------------------------8-10^------|
|----5------5------5---8^-8^-8^-8^-------8-10------------|
|--7^----7^-----7^---------------------------------------|
|--------------------------------------------------------|
|--------------------------------------------------------|
|--------------------------------------------------------|

|------8-^10-8------8-10^-10^-10^-8-10-8---------8-10^10^10^-^10-8---|
|-8-10---------8-10-------------------------8-10---------------------|
|--------------------------------------------------------------------|
|--------------------------------------------------------------------|
|--------------------------------------------------------------------|
|--------------------------------------------------------------------|

|----13^13^13^13^13^13^13^13^13^13^13^13^-13^-13^-13-10------------|
|-10----------------------------------------------------13\12-10---|
|------------------------------------------------------------------|
|------------------------------------------------------------------|
|------------------------------------------------------------------|
|------------------------------------------------------------------|

|-19^19^19^^17-15h17-15h17-17p15------|
|-------------------------------------|
|-------------------------------14----|
|-------------------------------------|
|-------------------------------------|
|-------------------------------------|




Don't Start (Too Late)
Black Sabbath - Sabotage (1975)

(I)-Guitar 1
(II)-Guitar 2

(I)
|----------------------------------------------------------|
|----------------------------------------------------------|
|----------------------------------------------------------|
|----------------------------------------------------------|
|-----3-----3-----3-----3-----3-----3-----3-----3----------|
|-1-1---1-1---1-1---1-1---1-1---1-1---1-1---1-1------------|
(I)
|----------------------------------------------------------|
|----------------------------------------------------------|
|-------1---1-3-1---------------1---1-3-1---1-3---1--------|
|-1-3-4---4-------4-3-1-3-1-3-4---4-------4-----4---/4-----|
|----------------------------------------------------------|
|----------------------------------------------------------|
|(II)
|---------------------------------------------------------------------|
|-------9-11-9----11-9----9-------------9-11-9----11-9----9-----------|
|-10-11--------11------11---10-11-10-11--------11------11---11-10-/11-|
|---------------------------------------------------------------------|
|---------------------------------------------------------------------|
|---------------------------------------------------------------------|
(I)
|----------------------------------------------------------|
|----------------------------------------------------------|
|----------------------------------------------------------|
|---4-4---4-4---4-4---4-4---4-4---4-4---4-4---4-4---4-4----|
|-2-----2-----2-----2-----2-----2-----2-----2-----2--------|
|----------------------------------------------------------|
(II)
|------------------9-9-9-9/11----|
|----9-11-12-11-12---------------|
|-11-----------------------------|
|--------------------------------|
|--------------------------------|
|--------------------------------|
(II)
|---------------------------------------|
|----9-11-12---11--------9-11-12---11---|
|-10------------------10----------------|
|---------------------------------------|
|---------------------------------------|
|---------------------------------------|
(II)1st time
|------------------------------|
|------------------------------|
|-4-3-1-3-1--1-----------------|
|--------------4-3-4--1-3------|
|------------------------------|
|------------------------------|
(II)
|---------------------------------------9-9/11----11-11---11-11-|
|-11----12--11h12p11------12-11-9-11-12-------------------------|
|---------------------------------------------------------------|
|---------------------------------------------------------------|
|---------------------------------------------------------------|
|---------------------------------------------------------------|

(II)
|--------------------------------------|
|-11-12p11-9-11-12p11-9-11-12p11-9-11--|
|--------------------------------------|
|--------------------------------------|
|--------------------------------------|
|--------------------------------------|
|(I)
|--------------------------------|
|--------------------------------|
|--------------------------------|
|-8-9-9----8-9-9----8-9-9----8---|
|-------11-------11-------11-----|
|--------------------------------|

----------------------------------------------------------------------------|
----------------------------------------------------------------------------|

Symptom Of The Universe
Black Sabbath - Sabotage (1975)


|----------------------------------------------------------|
|----------------------------------------------------------|
|----------------------------------7-----------------------|
|---------------6------------------5-6---------------------|
|-5-5-5-5-5-5-5-4----5-5-5-5-5-5-5---4---------------------|
|-3-3-3-3-3-3-3------3-3-3-3-3-3-3-------------------------|

|----------------------------------------------------------|
|----------------------------------------------------------|
|----------------------------------------------------------|
|--10------------------------------------------------------|
|--8---------11----------10--------------------------------|
|------------9-----------8---------------------------------|

|--------------------------------------------------------------------|
|--------------------------------------------------------------------|
|-------2-3---2-----------------5-------2-3---2-----------------5----|
|-----------5---3-5-2-3---2-3---5-----------5---3-5-2-3---2-3---5----|
|-----0-----------------5-----5-3-----0-----------------5-----5-3----|
|--------------------------------------------------------------------|

|--------------------------------------------------------------|
|--------------------------------------------------------------|
|-----------------------------0---0-2-0-2-4-2-0----------------|
|----0-0-0-0-0-0-0-0-0--0-2-4---4------------------------------|
|--------------------------------------------------------------|
|--------------------------------------------------------------|

|--------------------------------------------------------------|
|--------------------------------------------------------------|
|--7-----------------------------------------------------------|
|--7--slowly move hand up fretboard, imitating a sliding sound
|--5-----------------------------------------------------------|
|--------------------------------------------------------------|

|---------------------------------------------------------------------------|
|-----------5-------8-------7-------7-------------5-------8-------7-------7-|
|-------------5---------------7---------------------5---------------7-------|
|-------7-------7-------7-------7-------------7-------7-------7-------7-----|
|---------------------------------------------------------------------------|
|-4/5-----------------------------------4/5---------------------------------|

|--7---7---------------------------------------------|
|----10---8-10-8-7-8---7-8-5-------------------------|
|--------------------9-------7---5-4---5---4---------|
|----------------------------------------------7-----|
|----------------------------------------------------|
|----------------------------------------------------|

|----8---7-------8---7----------8---7------5--------------|
|----------10----------10-------------10-5---8-7-5--------|
|--9---9-------9---9----------9---9----------------7p5----|
|------------------------------------------------------7--|
|---------------------------------------------------------|
|---------------------------------------------------------|

|----------------------------------------------------|
|----------------------------------------------------|
|--4h5p4---4---------4-5---4-5---4-5-4---4-----------|
|--------7---5-7---7-----7-----7-------7---7-5-------|
|----------------------------------------------7-----|
|----------------------------------------------------|

|----------------------------------------------------------------------|
|----------------------------------------------------------------------|
|------------4------------------------------------4--------/9-7-5-4----|
|------4h5-7---7---5-4-5-7-5-7-7------------4h5-7---7--5-7----------7--|
|--7------------------------------------7------------------------------|
|----------------------------------------------------------------------|

|------7-----7-8-787---7---------------------------|
|----10--8-10--------10---10-787-------------------|
|--9---------------------9-------9-----------------|
|--------------------------------------------------|
|--------------------------------------------------|
|--------------------------------------------------|




Megaomania
Black Sabbath - Sabatoge (1975)

this is underneath everthing else:
|----------5-5-------------------5-5-----------------------|
|--------5----6----------------5----6----------------------|
|------5-------5-------------5-------5---------------------|
|----7----------7----------7----------7--------------------|
|-0---------(strum)-----0--------(strum)-------------------|
|----------------------------------------------------------|

Fills:
|-------|-----------------------|--------------------------|
|-------|-----------------------|--------------------------|
|-------|------5-7-5-(7)-7/9----|-------9p7-7\5------------|
|-/7----|-----------------------|---------------9h10-7-----|
|-------|-----------------------|--------------------------|
|-------|-----------------------|--------------------------|

|--------------------|-------------------------------------|
|--------------------|-------------------------------------|
|-/9-7---------------|-------------------------------------|
|------10p9-7--------|---------------10p9-10p9-------------|
|--------------------|---------10h12-----------12----------|
|--------------------|-------------------------------------|

|--17------17---------------17-----17----------------------|
|--20^-----20^--------------20^----20^---------------------|
|----------------------------------------------------------|
|----------------------------------------------------------|
|----------------------------------------------------------|
|----------------------------------------------------------|
|                                                          |
|----------------------------------------------------------|
|----------------------------------------------------------|
|--2--2----3----3-3535353---2-2-----3----3-3535353---------|
|--2--2--2-3----3-----------2-2--2--3----3-----------------|
|--0--0--2-1----1-----------0-0--2--1----1-----------------|
|--------0-----------------------0-------------------------|

|--------------------------|----------------------------------|
|--------------------------|----------------------------------|
|-7------5-5/7------5-5/7--|---5-7/9------7-7/9---------------|
|-7------5-5/7------5-5/7--|---5-7/9------7-7/9---------------|
|-5------3-3/5------3-3/5--|---3-5/7------5-5/7---------------|
|--------------------------|----------------------------------|
|
|---------------------|
|---------------------|
|-5~~/7~~~------------|
|---------------------|
|---------------------|
|---------------------|

Fills: 2nd Verse:
|------------|-----------------------|---------------------|
|------------|-----8-10-8-(8)h10-----|---------------------|
|---5-7/9----|-----------------------|---------------------|
|-7----------|-----------------------|-10p9----------------|
|------------|-----------------------|------12-10/12-------|
|------------|-----------------------|---------------------|

|---------------|----------------|-------------------------|
|-8--/(12)------|----------------|-------------------------|
|----------7/9--|----------------|-------------------------|
|---------------|-10h12-10p9-----|-9h10-9h10---------------|
|---------------|------------12--|-----------12------------|
|---------------|----------------|-------------------------|

Bridge:
|----------------------------------------------|2 x
|----------------------------------------------|
|-5-5-5-5-5----------------------------------5-|
|-5-5-5-5-5-3----3-3-------------------------5-|
|-3-3-3-3-3-3----3-3-------1---1----1----1/5-3-|
|-----------1----1-1-1-2-3---3----3----3-------|


|--------------------------------------------------------------------|
|--------------------------------------------------------------------|
|------2-----4-----4/5-5-5-----------5-----4---0h2-------------------|
|------2-----4-----4/5-5-5-----------5-----4---0h2---------0h2p0h2---|
|--0-0---0-0---0-0---------0-0-0-0-0---0-0---0-----0--0--0---------0-|
|--------------------------------------------------------------------|
|                                                                    |
|--------------------------------------------------------------------|
|--------------------------------------------------------------------|
|------2-----4-----4/5-5-5-----------5-----4---0h2-------------------|
|------2-----4-----4/5-5-5-----------5-----4---0h2---------0h2p0h2---|
|--0-0---0-0---0-0---------------------0-0---0---------------------0-|
|--------------------------------------------------------------------|
|
|---------------------|
|---------------------|
|---------------------|
|---------------------|
|---------------------|
|--(3)-5--3-/-5~~~~~--|

|-------------------------------------------------------------|
|-------------------------------------------------------------|
|--7--7-5-4-2-----7--7-5-4-2-----7--7-5-4-2-----5---2---------|
|--7--7-5-4-2-----7--7-5-4-2-----7--7-5-4-2-----5---2---------|
|-------------0-0------------0-0------------0-0-----0---------|
|-------------------------------------------------------------|



The Thrill Of It All
Black Sabbath - Sabotage (1975)

|----------------------------------------------------------|
|----------------------------------------------------------|
|--------------5--5/7-------------------5----9-------5-----|
|--------------5--5/7-------------------5----9-------5-----|
|--0-5h7-0-------------------0-5h7-0-----------------------|
|----------------------------------------------------------|


w/ solo
|----------------------------------------------------------|
|----------------------------------------------------------|
|-----------------------7----------------------------------|
|--5--4--5--7--9---5h7--7----------------------------------|
|--3--2--3--5--7--------5----------------------------------|
|----------------------------------------------------------|


|----------------------------------------------------------|
|----------------------------------------------------------|
|----5-5-5-5-5----------------5-5-5-5-5-----------8\7--8\7-|
|--0h3-3-3-3-3---5---7------0h3-3-3-3-3---5---7---6\5--6\5-|
|----------------3---5--------------------3---5------------|
|----------------------------------------------------------|


|----------------------------------------------------------|
|----------------------------------------------------------|
|----------------------------------------------------------|
|---5------3-5-7--3------------5----3-5-7--3---------------|
|--------------------5-----3-5----------------5------------|
|----------------------------------------------------------|

|----------------------------------------------------------|
|----------------------------------------------------------|
|----------------------------------------------------------|
|-------3-------5--3---/7----5----3----2-------------------|
|-3--5-----------------------------------------------------|
|----------------------------------------------------------|


|----------------------------------------------------------|
|----------------------------10-10-10--8-------------------|
|---7-------5-------7--------10-10-10--9-------------------|
|---7-------5-------7--------10-10-10--9-------------------|
|---5-------3-------5--------------------------------------|
|----------------------------------------------------------|


|--------------------------------------------------------------------|
|--------------------------------------------------------------------|
|--------------------------------------------------------------------|
|-----------4-5----7/9-7--4---------------------4-5---7/9-7--4-------|
|---5-5-5-7------------------7--5-------5-5-5-7-----------------7--5-|
|--------------------------------------------------------------------|


|----------------------------------------------------------|
|---------------------8-10^-^10----------------------------|
|--7--------------5/7-----------7--------------------------|
|-------7-9-10-------------------------10p9p7--------------|
|----------------------------------------------------------|
|----------------------------------------------------------|


|-------------------------10----------------------------------------------|
|13^^13-10--------------10--13p10-----------------------------------------|
|----------12^^12-10-12^---------12^^12p10-12p10--------------------10----|
|-----------------------------------------------12-10-------------10--12--|
|----------------------------------------------------12\10-8-10/12--------|
|-------------------------------------------------------------------------|


|----18^-18^-18^-18^-^18p-----------------------------------------|
|-15--------------------^13p10------------------------------------|
|------------------------------^12p10----------10-12^^-10~~~------|
|-------------------------------------12----12--------------------|
|-----------------------------------------------------------------|
|-----------------------------------------------------------------|

Solo:
|---------------------------|-----------------------------------|
|-7-8-10---8-10-8p7-8p7-----|-7-8-10-10/12-----12-10-8-10-7h8---|
|-----------------------7---|---------------------------------7-|
|---------------------------|-----------------------------------|
|---------------------------|-----------------------------------|
|---------------------------|-----------------------------------|


|----------------------------------------------------------|
|-7h8-10-7h8-10-7h8-10-7h8-10-7-8-7h8p7--------------------|
|---------------------------------------9-7----------------|
|----------------------------------------------------------|
|----------------------------------------------------------|
|----------------------------------------------------------|


|----------------------------10^-10^-10^-10^-10^-10^-^10--8-h10---|
|-7h8-10-7h8-10-7h8-10-/12----------------------------------------|
|-----------------------------------------------------------------|
|-----------------------------------------------------------------|
|-----------------------------------------------------------------|
|-----------------------------------------------------------------|





Supertzar
Black Sabbath - Sabotage (1975)


|-------------------------------------------------------------|
|-------------------------------------------------------------|
|------------------------------------------17-16--------------|
|--14-------17\16-17\16-16-17-14--17-16-14-17-16--------------|
|--14-------17\16-17\16-16-17-14--17-16-14-15-14--------------|
|--12-x-x-x-15\14-15\14-14-15-12--15-14-12--------------------|


|----------------------------------------------------------|
|-8--8-8-8-8-8--6--6-6-6-6-6--8--8-8-8-8-8--6--6-6-6-6-6---|
|-9--9-9-9-9-9--7--7-7-7-7-7--9--9-9-9-9-9--7--7-7-7-7-7---|
|-9--9-9-9-9-9--7--7-7-7-7-7--9--9-9-9-9-9--7--7-7-7-7-7---|
|-7--7-7-7-7-7--5--5-5-5-5-5--7--7-7-7-7-7--5--5-5-5-5-5---|
|----------------------------------------------------------|


|------------------------------------------------------------|
|------------------------------------------------------------|
|---------------------------------------------12-11-10-------|
|---------------------------------12-11-10-10----------------|
|-7-7-7-7-7--------------10-9-8-8----------------------------|
|-----------7-10-9-8---8-------------------------------------|


|-----------------------------------------------|
|-----------------------------------------------|
|----2------5-4-0-2-------2------5-4-0-2--------|
|----2------5-4-0-2-------2------5-4-0-2--------|
|-0-----0-0------------0-----0-0----------------|
|-----------------------------------------------|





Am I Going Insane
Black Sabbath - Sabotage (1975)


|---------------------|----------------------|---------------------|
|---------------------|----------------------|---------------------|
|--4---6---7^^\6-\-4--|---2---4---6^^\4---2--|---------------------|
|---------------------|----------------------|---------------------|
|---------------------|----------------------|---------------------|
|---------------------|----------------------|---------------------|


|--------------------------------|
|--------------------------------|
|--1----------2^^----1---2-------|
|--------------------------------|
|--------------------------------|
|--------------------------------|
|
|--------------------------------|
|--------------------------------|
|--------------------------------|
|--2----------4^^---2---0--------|
|--------------------------------|
|--------------------------------|


everybody's...
|--------------------------------------------------------------|
|--------------------------------------------------------------|
|--1------------2---------------4^^---2------------------------|
|--2----------2-3---------------5^^---3------------------------|
|--------------------------------------------------------------|
|--------------------------------------------------------------|

feeling paraniod...
|--------------------------------------------------------------|
|--------------------------------------------------------------|
|--1------------2---------------------2------------------------|
|--2------------0---------------------0------------------------|
|-------------2------------------------------------------------|
|--------------------------------------------------------------|


Tell me people, am I going insane?
C C C C C C C C D D D D D D A A A


|--------------------------------------------------------------|
|--------------------------------------------------------------|
|--1----------------2---4p2h4p2+2p1----2-----------------------|
|--2----------------4---6p4h6p4+4p2----------------------------|
|--------------------------------------4^----------------------|
|--------------------------------------------------------------|


|--------------------------------------------------------------|
|--2-----------------------------------------------------------|
|--1h2p1--4-------2-------1------------------1h2p2--2------4---|
|---------4-------2-------2---------------4---------4------2---|
|--------------------------------------------------------------|
|--------------------------------------------------------------|


|--------------------------------------------------------------|
|-----------------------2--------------------------------------|
|--1^-^-^---------------4-----4|2---1|1---1--------------------|
|-----------------------------------------2--------------------|
|--4^-^-^------------------------------------------------------|
|--------------------------------------------------------------|


|--------------------------------------------------------------|
|------------------/5--------3----------------3h6----3-----2---|
|-1-----2-----4|1---4--------2----------------2h4----2-----1---|
|-2-----4------------------------------------------------------|
|--------------------------------------------------------------|
|--------------------------------------------------------------|


|--------------------------------------------------------------|
|------------------------------------3^------3-----------------|
|--/1--------------1----2----4|1-----2^------2-----------------|
|--/2--------------2----4--------------------------------------|
|--------------------------------------------------------------|
|--------------------------------------------------------------|


|---------------------------------------------------------------------------|
|-----7--8--7--8-----7--8--/12--10h12p10-8-10-8h10p8-7--8--7-----7----------|
|--9--------------9-------------------------------------------9-----7----9--|
|----------------------------------------------------------------------7----|
|---------------------------------------------------------------------------|
|---------------------------------------------------------------------------|




The Writ
Black Sabbath - Sabotage (1975)


  B                               B
--x-------------------------------x---------------------------------|
--x-------------------------------x---------------------------------|
--4-------------------------------4---------------------------------|
--4-------------------------------4---------------------------------|
--2-------------------------------2---------------------------------|
--x-------------------------------x---------------------------------|
(Guitar 1)
  The way I feel is the Way I am  I would start walking but I started
  What kind of people do you..... Another joker who's a rock and roll
  The faitthful image of......... The endless ocean of emotion I swam
  The shot troopers lying down... I wish they'd put an end to my running war
  You bought and sold me with.... The voices in the deck that you never heard
  Your folly finally got you..... A poisoned father with his poisonous son
  I beg you please don't let..... The anger I once had has turned to a curse
  All of the promises that ...... You're gonna get what is coming to you
--------------------------------------------------------------------|
-----------------5-4--4-4/-5~-----------5-4--4-4/-5~----------------|
-----4^(6)`4-----x-x--x-x--x------------x-x--x-x--x-----------------|
-----------------7-6--6-6/-7~-----------7-6--6-6/-7~----------------|
--------------------------------------------------------------------|
--------------2-----------------------2-----------------------------|
(Guitar 1)
------------x-x-----------------------x-x---------------------------|
------------2-2-----------------------2-2---------------------------|
------------3-3-----------------------3-3---------------------------|
------------4-4-----------------------4-4---------------------------|
------------4-4-----------------------4-4---------------------------|
------------4-2-{let the chord ring}--3-2-{let the chord ring}------|
(Guitar 2)
to run to   you              Just to you
       for  you             Yeah for you
       with you            Yeah with you
   came through        Yeah it came true
     that's you          Yeah that's you
         on you           Yeah curse you
    that's true         Ahh, that's true
---x----------x-x------x----x---x--x--x----------------------------------x-----|
---x----------x-x------x----x---x--x--x----------------------------------x-----|
---2----------2-2------2----4---1--1--1----------------------------------4-----|
---2----------2-2------2----4---2--2--2------------------------------(4)-4-----|
---0----------0-0------0----2---2--2--2-------------------------------0--2-----|
---x--2-0-2h4-x-x------x----x---0--0--0----------------------------------x-----|
(Guitar 1)

---x--------------------x---x---x--x--x----------------------------------x-----|
---5--------------------5---7---x--x--x----------------------------------x-----|
---6--------------------6---8---1--1--1----------------------------------4-----|
---7--------------------7---9---2--2--2------------------------------(4)-4-----|
---7--------------------7---9---2--2--2-------------------------------0--2-----|
(0)5-{strum}------------5---7---0--0--0----------------------------------x-----|
(Guitar 2)
   Are you    metal,   are you  man?  You've changed in life since you began
   Ladies   digging   gold  from you  Will they still dig now  you're  through
   Are you    Satan,   are you  man?  You've changed in life since it  began
   Vultures sucking  gold   from you  Will they still suck now you're  through

----x---------------------------------------------------------------------------|
----x---------------------------------------------------------------------------|
----4---------------------------------------------------------------------------|
(4)-4---------------------------------------------------------------------------|
-0--2---------------------------------------------------------------------------|
----x---------------------------------------------------------------------------|
(Guitar 1 & 2)
Yeah, began            {Return to bass intro}
Yeah, you're through
It    began


-------x----------------x-x--------x---------------x-x-------|
-------x----------------x-x--------x---------------x-x-------|
-------2/(5)\(3)--------2-2--------2/(5)\(3)-------2-2-------|
-------2/(5)\(3)--------2-2--------2/(5)\(3)-------2-2-------|
-------x----------------x-x--------x---------------x-x-------|
-0h2h4-----------0h20h4------0h2h4-----------0h2h4-----------|
(Guitar 1)

-------x---------------x-x---------x---------------x-x-------|
-------x---------------x-x---------x---------------x-x-------|
-------2/(5)\(3)-------2-2---------2/(5)\(3)-------2-2-------|
-------2/(5)\(3)-------2-2---------2/(5)\(3)-------2-2-------|
-------x---------------x-x---------x---------------x-x-------|
-0h2h4-----------0h2h4-------0h2h4-----------0h2h4-----------|
 Cats                         Rats
 The search is on so you just better run and find youself another way
 Probably dead, they don't feel a thing keep them living for another day

 Rat                          Brat
 You're a nonentity, you have no destiny. You are a victim of a thing unknown
 A mantel picture of a stolen soul, A fornication of your golden throne.

----x---------xx--x---x--x--x-----------x-------------x--x--x--------|
----x---------xx--x---x--x--x----------12-11\9/11\9---x--x--x-----12-|
----4-(4)-(4)-44--6--10-10-10\(8)-(xx)-12-11\9/11\9--10-10-10\(8)-12-|
----4-(4)-(4)-44--6--11-11-11\(9)-(xx)-12-11\9/11\9--11-11-11\(9)-12-|
(0)-2-(2)-(2)-22--4--11-11-11\(9)-(xx)-10--9\7/-9\7--11-11-11\(9)-10-|
----------------------9--9--9\(7)-(xx)--x--x----------9--9--9\(7)--x-|
                      D  D  D                         D  D  D
                    <------------------ Repeat 2x --------------

--x-x--x----------|
--x-x--x----------|
-11\9/11-(xx)-----|
-11\9/11-(xx)-----|
--9\7/-9-(xx)-----|
--x-x--x-(xx)-----|
------------------|

-------------------------------------------------------------------------|
-------------------------------------------------------------------------|
------------------2~-2/4p0-1~-------------------2~-2/4p0-1~-(1/5)--------|
-2-2-2h4p0h4~-2h4--------------2-2-2h4p0h4~-2h4--------------------------|
-------------------------------------------------------------------------|
-------------------------------------------------------------------------|
 A smiling face it means.....  So tired of sadness and  of    miser-
 But everything is gonna.....  If it don't I think I'll lose my mi-
 But everything is gonna.....  If it don't I feel I'll  blow my mi-

-x-x-x---x-x-x---x-x---------------------------|
-4-4-4---4-4-4---4-4--44444444444444444444-----|
-5-5-5---5-5-5---5-5--55555555666666666666-----|
-6-6-6---6-6-6---6-6--66666666666666666666-----|  {After vocals, go to end}
-6-6-6---6-6-6---6-6--66666666666666666666-----|
-4-4-4---4-4-4---4-4--44444444444444444444-----|
 U D U   U D U   U D  {muted}<--20 times-------|

y----------------------------------------->
nd---------------------------------------->
nd---------------------------------------->

----------------------------------------------------------------------------|
----------------------------------------------------------------------------|
----6---6------6---6------6--6------6---6------6---6------6---6------6--6---|
---6--6---6---6--6---6---6--6--6---6--6---6---6--6---6---6--6---6---6--6--6-|
--4----------4----------4---------4----------4----------4----------4--------|
-4----------4----------4---------4----------4----------4----------4---------|

-------------------|
-------------------|
----6---6----------|
---6--6---6--------|  {Play a total of 5 times during the vocals below}
--4----------------|
-4-----------------|

*Acoustic 12 string, harpsichord and zylaphone* {I'm only translating the guitar!}

My life it started, some time ago
And where it will end, I don't know

I thought I was so good, I thought I was smart
I feel my world is gonna part.

I know, I know, I know, yeah, yeah, I know
Listen to me, while I sing this song
You just might think the words are wrong

Too many people, advising me
But they don't know what my eyes see

--x--x--x-----------x--x-x--x-x---x--x--x-----------x--x-x--x--|
--x--x--x----------12-11\9/11/9---x--x--x----------12-11\9/11--|
-10-10-10\(8)-(xx)-12-11\9/11/9--10-10-10\(8)-(xx)-12-11\9/11--|
-10-10-11\(9)-(xx)-12-11\9/11/9--10-10-10\(9)-(xx)-12-11\9/11--| {Repeat 20 times
-11-11-11\(9)-(xx)-10--9\7/-9/7--11-11-11\(9)-(xx)-10--9\7/-9--|  and fade out}
--9--9--9\(7)-(xx)--x--x-x--x-x---9--9--9\(7)-(xx)--x--x-x--x--|
  D  D  D                         D  D  D

Notes--Lyrics do NOT coorespond with the music!!
comments
print report bad tab
3 comments total.
0 reply
Caligaris27 wrote on May 30 2007, 03:59 pm

You got part of the lyrics wrong on The Writ..... Your folly finally got to spend with a gun, is really ... Your fallen fralic god dismembered and gone!!!

0 reply
the dr. wrote on April 8 2008, 11:32 pm

the album isn't in c# tuning and hole in the sky is a string up as in the open notes are on the low e string instead of the a string

0 reply
binadra1234 wrote on December 9 2012, 06:57 am

Great tabs! Thank you.

I want to post or [tab]
guest
You may want to rate the tab now too:
select rating
Please do not post tabs as comments. Select "correction" instead!