Oops, an error
Loading. Please wait.

Carolyn Bass Tab

ver2
ver2

Whole song

Interactive

More versions @911Tabs.com
605 views 1 this week
no commentswrite comment
1 2 3 4 5
excellent!
x 3
Autoscroll
+/-
esc
set tempo
stop
Contributor
Tuning
D A D G B E
Hey! There's an official Ultimate Guitar app which is ideal
for learning songs when you're away from computer. Get the app
WARNING: You are trying to view
                                    content from Ultimate-Guitar.com
                                    in an unauthorized application,
                                    which is prohibited.

                                    Please use an official Ultimate
                                    Guitar Tabs application for iPhone,
                                    iPad or Android to access legitimate
                                    chords, guitar, bass, and drum tabs
                                    from Ultimate-Guitar.com database.

                                    Type "ultimate guitar tabs" in Apple
                                    App Store's or Android Market's
                                    search to find the application.
0:34
G|-------------------------------------------------------------------------|
D|-------------------------------------------------------------------------|
A|-0---0-0-0---0---0---2---3-----3---3-3---3---3-5-----------------------3-|
D|-------------------------------------------------5-----5---5-5---5---5---|
   1 + 2 + 3 + 4 + 5 + 6 + 1 + 2 + 3 + 4 + 5 + 6 + 1 + 2 + 3 + 4 + 5 + 6 +

G|-------------------------------------------------------------------------|
D|-------------------------------------------------------------------------|
A|-5-----------5---3-3-5---0---0-0-0---0---0---2---3-----3---3-3---3---3-5-|
D|-------0---0-------------------------------------------------------------|
   1 + 2 + 3 + 4 + 5 + 6 + 1 + 2 + 3 + 4 + 5 + 6 + 1 + 2 + 3 + 4 + 5 + 6 +

G|-------------------------------------------------------------------------|
D|-------------------------------------------------------------------------|
A|-----------------------3-5-----------5---3-3-5---0-----------------------|
D|-5-----5---5-5---5---5---------0---0-------------------------------------|
   1 + 2 + 3 + 4 + 5 + 6 + 1 + 2 + 3 + 4 + 5 + 6 + 1 + 2 + 3 + 4 + 5 + 6 +

rest

1:02
G|-------------------------------------------------------------------------|
D|-------------------------------------------------2-------2---2-------2---|
A|-3-------3---3-------3---5-------5---5-------5---------------------------|
D|-------------------------------------------------------------------------|
   1 + 2 + 3 + 4 + 5 + 6 + 1 + 2 + 3 + 4 + 5 + 6 + 1 + 2 + 3 + 4 + 5 + 6 +

G|-------------------------------------------------------------------------|
D|-3-----2-----------0-----------------------------------------------------|
A|-------------2-----------3-------3---3-------3---5-------5---5-------5---|
D|-------------------------------------------------------------------------|
   1 + 2 + 3 + 4 + 5 + 6 + 1 + 2 + 3 + 4 + 5 + 6 + 1 + 2 + 3 + 4 + 5 + 6 +

G|-------------------------------------------------------------------------|
D|-2-------2---2-------2---3-----2-----------0-----------------------------|
A|-------------------------------------2-----------3-------3---3-------3---|
D|-------------------------------------------------------------------------|
   1 + 2 + 3 + 4 + 5 + 6 + 1 + 2 + 3 + 4 + 5 + 6 + 1 + 2 + 3 + 4 + 5 + 6 +

G|-------------------------------------------------------------------------|
D|-------------------------2-------2----2------2---3-----2-----------0-----|
A|-5-------5---5-------5---------------------------------------2-----------|
D|-------------------------------------------------------------------------|
   1 + 2 + 3 + 4 + 5 + 6 + 1 + 2 + 3 + 4 + 5 + 6 + 1 + 2 + 3 + 4 + 5 + 6 +

1:28
G|-------------------------------------------------------------------------|
D|-------------------------------------------------------------------------|
A|-0-----0-0-0-0---0---2---3-----3---3-3---3---3-5-----------------------3-|
D|-------------------------------------------------5---5-5---5-5---5---5---|
   1 + 2 + 3 + 4 + 5 + 6 + 1 + 2 + 3 + 4 + 5 + 6 + 1 + 2 + 3 + 4 + 5 + 6 +

G|-------------------------------------------------------------------------|
D|-------------------------------------------------------------------------|
A|-5-----5---5-5---5---5---0-----0-0-0-0---0---2---3-----3---3-3---3---3-5-|
D|-------------------------------------------------------------------------|
   1 + 2 + 3 + 4 + 5 + 6 + 1 + 2 + 3 + 4 + 5 + 6 + 1 + 2 + 3 + 4 + 5 + 6 +

G|-------------------------------------------------------------------------|
D|-------------------------------------------------------------------------|
A|-----------------------3-5-----5---5-5---5---5---0-----------------------|
D|-5-----5---5-5---5---5---------------------------------------------------|
   1 + 2 + 3 + 4 + 5 + 6 + 1 + 2 + 3 + 4 + 5 + 6 + 1 + 2 + 3 + 4 + 5 + 6 +

G|-------------------------------------------------|
D|-------------------------------------------------|
A|-2-----0-----------------------------------------|
D|-------------5-----0-----2-----2-----------------|
   1 + 2 + 3 + 4 + 5 + 6 + 1 + 2 + 3 + 4 + 5 + 6 +

rest

2:01
G|-------------------------------------------------------------------------|
D|-3-----2-----------------------------------------------------------------|
A|-------------2-----5-----3-----3---3-3-------3---5-----------5-------5---|
D|-----------------------------------------5-------------0---0-----0-------|
   1 + 2 + 3 + 4 + 5 + 6 + 1 + 2 + 3 + 4 + 5 + 6 + 1 + 2 + 3 + 4 + 5 + 6 +

G|-------------------------------------------------------------------------|
D|-2-----2-2---2-2---------3-----2-----------------------------------------|
A|-------------------------------------2-----5-----3-----3---3-3-------3---|
D|-----------------------------------------------------------------5-------|
   1 + 2 + 3 + 4 + 5 + 6 + 1 + 2 + 3 + 4 + 5 + 6 + 1 + 2 + 3 + 4 + 5 + 6 +

G|-------------------------------------------------------------------------|
D|-------------------------2-------2-----2---------3-----2-----------------|
A|-5-----------5-------5---------------------------------------2-----5-----|
D|-------0---0-----0-------------2-----2-----------------------------------|
   1 + 2 + 3 + 4 + 5 + 6 + 1 + 2 + 3 + 4 + 5 + 6 + 1 + 2 + 3 + 4 + 5 + 6 +

rest

2:24
G|-------------------------------------------------------------------------------------|
D|-------------------------------------------------------------------------------------|
A|-0-0-0-0-0-0-0---0-0-0-0-0---0---2---3-----3---3-3---3---3-5-----------------------3-|
D|-------------------------------------------------------------5---5-5---5-5---5---5---|
   4 + 5 + 6 + 1 + 2 + 3 + 4 + 5 + 6 + 1 + 2 + 3 + 4 + 5 + 6 + 1 + 2 + 3 + 4 + 5 + 6 +

G|-------------------------------------------------------------------------|
D|-------------------------------------------------------------------------|
A|-5-----------5-------5---0-----0---0-0---0---2---3-----3---3-3---3---3-5-|
D|-------0---0-----0-------------------------------------------------------|
   1 + 2 + 3 + 4 + 5 + 6 + 1 + 2 + 3 + 4 + 5 + 6 + 1 + 2 + 3 + 4 + 5 + 6 +

G|-------------------------------------------------------------------------|
D|-------------------------------------------------------------------------|
A|-------------------------5-----------5---5---5---0---0-0-0-0-0---0---2---|
D|-5-----5---5-5---5---5---------0---0-------------------------------------|
   1 + 2 + 3 + 4 + 5 + 6 + 1 + 2 + 3 + 4 + 5 + 6 + 1 + 2 + 3 + 4 + 5 + 6 +

G|-------------------------------------------------------------------------|
D|-------------2-----------------------------------------------------------|
A|-3-----3---3-----3---5---------------------------5-----------5---5---5---|
D|-------------------------5-----5---5-5---5---5---------0---0-------------|
   1 + 2 + 3 + 4 + 5 + 6 + 1 + 2 + 3 + 4 + 5 + 6 + 1 + 2 + 3 + 4 + 5 + 6 +

G|-------------------------------------------------------------------------|
D|-------------------------------------------------------------------------|
A|-0---0-0-0-0-0---0---2---3-----3---3-3---3---3---------------------------|
D|-------------------------------------------------5-----5---5-5---5---5---|
   1 + 2 + 3 + 4 + 5 + 6 + 1 + 2 + 3 + 4 + 5 + 6 + 1 + 2 + 3 + 4 + 5 + 6 +

2:58 
G|-------------------------------------------------------------------------|
D|-------------------------------------------------------------------------|
A|-------------------------3-3-3-3-3-3-3-3-3-3-3-3-5-5-5-5-5-5-5-5-5-5-5-5-|
D|-0-----0-0---0-----0-0---------------------------------------------------|
   1 + 2 + 3 + 4 + 5 + 6 + 1 + 2 + 3 + 4 + 5 + 6 + 1 + 2 + 3 + 4 + 5 + 6 +

G|-------------------------------------------------------------------------|
D|-------------------------------------------------------------------------|
A|-------------------------------------------------3---3-3---3-3---3-2-3-4-|
D|-2-2-2-2-2-2-2-2-2-2-2-2-2-2-2-2-2-2-2-2-2-2-2-2-------------------------|
   1 + 2 + 3 + 4 + 5 + 6 + 1 + 2 + 3 + 4 + 5 + 6 + 1 + 2 + 3 + 4 + 5 + 6 +

G|-------------------------------------------------------------------------|
D|-------------------------2-----------2-----------------------2-----------|
A|-5-----------5-------5---------------------------------------------------|
D|-----0-0---0-----0-0-------2---2---2---2---2---2-r-2---2---2---2---2---2-|
   1 + 2 + 3 + 4 + 5 + 6 + 1 + 2 + 3 + 4 + 5 + 6 + 1 + 2 + 3 + 4 + 5 + 6 +

G|-------------------------------------------------------------------------|
D|-------------------------------------------------------------------------|
A|-3-----------------------0-----------------------------------------------|
D|-------------------------------------------------2-2---2-2---2-2---2-2---|
   1 + 2 + 3 + 4 + 5 + 6 + 1 + 2 + 3 + 4 + 5 + 6 + 1 + 2 + 3 + 4 + 5 + 6 +

G|-------------------------------------------------------------------------|
D|-------------------------------------------------------------------------|
A|-------------------------3---3-3---3-3---3---3---0---0-0---0-0---0---0---|
D|-5-5---5-5---5-5---5-5---------------------------------------------------|
   1 + 2 + 3 + 4 + 5 + 6 + 1 + 2 + 3 + 4 + 5 + 6 + 1 + 2 + 3 + 4 + 5 + 6 +

G|-------------------------------------------------|
D|-------------------------------------------------|
A|-------------------------------------------------|
D|-2-----------------------5-----------------------|
   1 + 2 + 3 + 4 + 5 + 6 + 1 + 2 + 3 + 4 + 5 + 6 +

rest

3:40
G|-------------------------------------------------------------------------|
D|-------------------------------------------------------------------------|
A|-------------------------5-----------5---5---5---0---0-0---0-0---0---2---|
D|-5-----5---5-5---5---5---------0---0-------------------------------------|
   1 + 2 + 3 + 4 + 5 + 6 + 1 + 2 + 3 + 4 + 5 + 6 + 1 + 2 + 3 + 4 + 5 + 6 +

G|-------------------------------------------------------------------------|
D|-------------------------------------------------------------------------|
A|-3-----3---3-3---3---5---------------------------5-----------5---5---5---|
D|-------------------------5-----5---5-5---5---5---------0---0-------------|
   1 + 2 + 3 + 4 + 5 + 6 + 1 + 2 + 3 + 4 + 5 + 6 + 1 + 2 + 3 + 4 + 5 + 6 +

G|-------------------------------------------------------------------------|
D|-------------5---4---2-------------------2-------------------------------|
A|-0-----0---0-----------5-3-----3---3-3-------3---------------------------|
D|-------------------------------------------------5-----5---5-5-4-5---5---|
   1 + 2 + 3 + 4 + 5 + 6 + 1 + 2 + 3 + 4 + 5 + 6 + 1 + 2 + 3 + 4 + 5 + 6 +

G|-------------------------------------------------------------------------|
D|-------------------------------------------------------------2-------2---|
A|-5-----------5-----------0---0-0---0-0---0---2---3---3-3---3-----3-------|
D|-------0---0-----0---5---------------------------------------------------|
   1 + 2 + 3 + 4 + 5 + 6 + 1 + 2 + 3 + 4 + 5 + 6 + 1 + 2 + 3 + 4 + 5 + 6 +

4:06
G|-------------------------------------------------------------------------|
D|-------------------------------------------------------------5-4---2---2-|
A|-------------------------------------------------0---0-0---0-----3---3---|
D|-5---5-5---5-5-4-5---5---0-0-0-0-0-0-0-0-0-0-0-0-------------------------|
   1 + 2 + 3 + 4 + 5 + 6 + 1 + 2 + 3 + 4 + 5 + 6 + 1 + 2 + 3 + 4 + 5 + 6 +

G|-------------------------------------------------------------------------|
D|-------------------------------------------------------------------------|
A|-3---3-3---3-3---3---5---------------------------5---5-------5---5---5---|
D|-------------------------5---5-5---5-5---5-4-5---------0---0-------------|
   1 + 2 + 3 + 4 + 5 + 6 + 1 + 2 + 3 + 4 + 5 + 6 + 1 + 2 + 3 + 4 + 5 + 6 +

G|-------------------------------------------------------------------------|
D|-------------5---5-4-2---------------------------------------------------|
A|-0---0-0-0-0-----------5-3---3-3---3-3---3-3-2-0-----------------------3-|
D|-------------------------------------------------5---5-5---5-5-4-5-4-5---|
   1 + 2 + 3 + 4 + 5 + 6 + 1 + 2 + 3 + 4 + 5 + 6 + 1 + 2 + 3 + 4 + 5 + 6 +

G|-------------------------------------------------------------------------|
D|-------------------------------------------------------------------------|
A|-5-----5-----5---5-4-3-2-0---0-0---0-0---0---0-2-3---3-3---3-3---3-3-3---|
D|-----0-----0-------------------------------5-----------------------------|
   1 + 2 + 3 + 4 + 5 + 6 + 1 + 2 + 3 + 4 + 5 + 6 + 1 + 2 + 3 + 4 + 5 + 6 +
Tabbed by Dave Vucko
comments
We did not receive enough feedback on this tab! Please rate:
print report bad tab
1 2 3 4 5
I want to post or [tab]
guest
You may want to rate the tab now too:
select rating
Please do not post tabs as comments. Select "correction" instead!