Oops, an error
Loading. Please wait.

Coffin Bass Tab

ver1
ver1

Whole song

Interactive

More versions @911Tabs.com
2,189 views 3 this week
no commentswrite comment
1 2 3 4 5
excellent!
x 2
Autoscroll
+/-
esc
set tempo
stop
Contributor
Tuning
C# G# C# F# A# D#
Hey! There's an official Ultimate Guitar app which is ideal
for learning songs when you're away from computer. Get the app
WARNING: You are trying to view
                                    content from Ultimate-Guitar.com
                                    in an unauthorized application,
                                    which is prohibited.

                                    Please use an official Ultimate
                                    Guitar Tabs application for iPhone,
                                    iPad or Android to access legitimate
                                    chords, guitar, bass, and drum tabs
                                    from Ultimate-Guitar.com database.

                                    Type "ultimate guitar tabs" in Apple
                                    App Store's or Android Market's
                                    search to find the application.
0:16
F|-----------------------------------------------------------------|
C|-----------------------------------------------------------------|
G|-----------------------------------------------------------------|
C|-0-------------------------------0---------------5-7-8-7-7-5-3-0-|
   1 + 2 + 3 + 4 + 1 + 2 + 3 + 4 + 1 + 2 + 3 + 4 + 1 + 2 + 3 + 4 +

F|-----------------------------------------------------------------|
C|-----------------------------------------------------------------|
G|-------------------------------------------------6-8-6-5---------|
C|-------------------------------8---8-8-8-8-8-8-8---------7-8-7-0-|
   1 + 2 + 3 + 4 + 1 + 2 + 3 + 4 + 1 + 2 + 3 + 4 + 1 + 2 + 3 + 4 +

0:25
F|-----------------------------------------------------------------|
C|-----------------------------------------------------------------|
G|---------------------------------------------------------0-3-5---|
C|---0-8-0-7-0-5-0-5-7-8-7-7-5-3-0---0-8-0-7-0-5-0-5-7-8-7-------0-|
   1 + 2 + 3 + 4 + 1 + 2 + 3 + 4 + 1 + 2 + 3 + 4 + 1 + 2 + 3 + 4 +

F|-----------------------------------------------------------------|
C|-----------------------------------------------------------------|
G|-----------------------------------------------------------------|
C|---0-8-0-7-0-5-0-5-7-8-7-7-5-3-8---8-8-8-8-8-8-8-----------------|
   1 + 2 + 3 + 4 + 1 + 2 + 3 + 4 + 1 + 2 + 3 + 4 + 1 + 2 + 3 + 4 +

0:34
F|-------------------------------------------------------------------|
C|o-----------------------------------------------------------------o|
G|o---------------------------------------------------0-3-5-3-0-----o|
C|--0-0-0-0-0-0-0-0-8-8-8-8-8-8-8-8-7-7-7-7-7-7-7-7-5-----------5-3--|
    1 + 2 + 3 + 4 + 1 + 2 + 3 + 4 + 1 + 2 + 3 + 4 + 1 + 2 + 3 + 4 +

F|-------------------------------------------------------------------|
C|o-----------------------------------------------------------------o|
G|o---------------------------------------------------0-3-5-3-0-----o|
C|--0---0---0-0-0-0-8---8---8-8-8-8-7---7---7-7-7-7-5-----------5-3--|
    1 + 2 + 3 + 4 + 1 + 2 + 3 + 4 + 1 + 2 + 3 + 4 + 1 + 2 + 3 + 4 +

0:52
F|-----------------------------------------------------------------|
C|-----------------------------------------------------------------|
G|---------------------------------3-3-3-3-3-3-3-3-0-1-3---3-1-0-3-|
C|-8-8-8-8-8-8-8-8-8-8-8-8-8-8-8-8---------------------------------|
   1 + 2 + 3 + 4 + 1 + 2 + 3 + 4 + 1 + 2 + 3 + 4 + 1 + 2 + 3 + 4 +

F|-----------------------------------------------------------------|
C|-----------------------------------------------------------------|
G|---------------------------------5-5-5-5-5-5-5-5-----------------|
C|-8-8-8-8-8-8-8-8-8-8-8-8-8-8-8-8-----------------7-7-7-7-7-7-7-7-|
   1 + 2 + 3 + 4 + 1 + 2 + 3 + 4 + 1 + 2 + 3 + 4 + 1 + 2 + 3 + 4 +

1:02
F|-----------------------------------------------------------------|
C|-----------------------------------------------------------------|
G|---------------------------------3-3-3-3-3-3-3-3-0-1-3-3-1-0-3-3-|
C|-8-8-8-8-8-8-8-8-8-8-8-8-8-8-8-8---------------------------------|
   1 + 2 + 3 + 4 + 1 + 2 + 3 + 4 + 1 + 2 + 3 + 4 + 1 + 2 + 3 + 4 +

F|-----------------------------------------------------------------|
C|-----------------------------------------------------------------|
G|---------------------------------3---------------4---------------|
C|-8-8-8-8-8-8-8-8-8-8-8-8-8-8-8-8---------------------------------|
   1 + 2 + 3 + 4 + 1 + 2 + 3 + 4 + 1 + 2 + 3 + 4 + 1 + 2 + 3 + 4 +

1:10
F|-----------------------------------------------------------------|
C|-----------------------------------------------------------------|
G|---------------------------------3---3-3-3-3---3-3---3-3-3-3-3-3-|
C|-0---0-0-0-0---0-0---0-0-0---0-----------------------------------|
   1 + 2 + 3 + 4 + 1 + 2 + 3 + 4 + 1 + 2 + 3 + 4 + 1 + 2 + 3 + 4 +

F|-----------------------------------------------------------------|
C|-----------------------------------------------------------------|
G|-----------------------------------------------------------------|
C|-3---3-3-3-3---3-3---3-3-3-3-----8-8-8-8-8-8-8-8-8-8-8-8-8-8-8-8-|
   1 + 2 + 3 + 4 + 1 + 2 + 3 + 4 + 1 + 2 + 3 + 4 + 1 + 2 + 3 + 4 +

1:20
F|-----------------------------------------------------------------|
C|-----------------------------------------------------------------|
G|---------------------------------3---3-3-3-3---3-3---3-3-3-3-3-3-|
C|-0---0-0-0-0---0-0---0-0-0---0-----------------------------------|
   1 + 2 + 3 + 4 + 1 + 2 + 3 + 4 + 1 + 2 + 3 + 4 + 1 + 2 + 3 + 4 +

F|-----------------------------------------------------------------|
C|-----------------------------------------------------------------|
G|-----------------------------------------------------------------|
C|-3---3-3-3-3---3-3---3-3-3-3-----7-7-7-7-7-7-7-7-7---5---3---1-0-|
   1 + 2 + 3 + 4 + 1 + 2 + 3 + 4 + 1 + 2 + 3 + 4 + 1 + 2 + 3 + 4 +

1:29
F|-----------------------------------------------------------------|
C|-----------------------------------------------------------------|
G|---------------------------------------------------------0-3-5---|
C|---0-8-0-7-0-5-0-5-7-8-7-7-5-3-0---0-8-0-7-0-5-0-5-7-8-7-------0-|
   1 + 2 + 3 + 4 + 1 + 2 + 3 + 4 + 1 + 2 + 3 + 4 + 1 + 2 + 3 + 4 +

F|---------------------------------------------------------------------------------|
C|---------------------------------------------------------------------------------|
G|-------------------------------------------------6-8-5-6-3-5-1-3-0---------------|
C|---0-8-0-7-0-5-0-5-7-8-7-7-5-3-8---8-8-8-8-8-8-8-------------------8-5-7-3-5-1-0-|
   1 + 2 + 3 + 4 + 1 + 2 + 3 + 4 + 1 + 2 + 3 + 4 + 1 + 2 + 3 + 4 + 1 + 2 + 3 + 4 +

1:40
F|-----------------------------------------------------------------|
C|-----------------------------------------------------------------|
G|-----------------------------------------------------------------|
C|---0-0-0-0-0---0-0-0-0-0-0-0---0---0-0-0-0-0---0-0-0-0-0-0-0---8-|
   1 + 2 + 3 + 4 + 1 + 2 + 3 + 4 + 1 + 2 + 3 + 4 + 1 + 2 + 3 + 4 +

F|------------------------------------------------------------------|
C|------------------------------------------------------------------|
G|------------------------------------------------------------------|
C|---8-8-8-8-8---8-8-8-8-8-8-8---7---7-7-7-7-7---7-7-7-7-7-10-8-7-0-|
   1 + 2 + 3 + 4 + 1 + 2 + 3 + 4 + 1 + 2 + 3 + 4 + 1 + 2 + 3  + 4 +

1:48
F|-----------------------------------------------------------------|
C|-----------------------------------------------------------------|
G|-----------------------------------------------------------------|
C|---0-0-0-0-0---0-0-0-0-0-0-0---0---0-0-0-0-0---0-0-0-0-0-0-0---8-|
   1 + 2 + 3 + 4 + 1 + 2 + 3 + 4 + 1 + 2 + 3 + 4 + 1 + 2 + 3 + 4 +

F|-----------------------------------------------------------------|
C|-----------------------------------------------------------------|
G|-------------------------------0---0-0-0-0-0---0-0-0-0-0-3-5-3-0-|
C|---8-8-8-8-8---8-8-8-8-8-8-8-------------------------------------|
   1 + 2 + 3 + 4 + 1 + 2 + 3 + 4 + 1 + 2 + 3 + 4 + 1 + 2 + 3 + 4 +

1:57
F|-----------------------------------------------------------------|
C|-----------------------------------------------------------------|
G|---------------------------------3-3-3-3-3-3-3-3-0-1-3---3-1-0-3-|
C|-8-8-8-8-8-8-8-8-8-8-8-8-8-8-8-8---------------------------------|
   1 + 2 + 3 + 4 + 1 + 2 + 3 + 4 + 1 + 2 + 3 + 4 + 1 + 2 + 3 + 4 +

F|-----------------------------------------------------------------|
C|-----------------------------------------------------------------|
G|---------------------------------5-5-5-5-5-5-5-5-----------------|
C|-8-8-8-8-8-8-8-8-8-8-8-8-8-8-8-8-----------------7-7-7-7-7-7-7-7-|
   1 + 2 + 3 + 4 + 1 + 2 + 3 + 4 + 1 + 2 + 3 + 4 + 1 + 2 + 3 + 4 +

F|-----------------------------------------------------------------|
C|-----------------------------------------------------------------|
G|---------------------------------3-3-3-3-3-3-3-3-0-1-3-3-3-1-0-3-|
C|-8-8-8-8-8-8-8-8-8-8-8-8-8-8-8-8---------------------------------|
   1 + 2 + 3 + 4 + 1 + 2 + 3 + 4 + 1 + 2 + 3 + 4 + 1 + 2 + 3 + 4 +

F|-----------------------------------------------------------------|
C|-----------------------------------------------------------------|
G|-------------------------------1-3-------------1-4---------------|
C|-8-8-8-8-8-8-8-8-8-8-8-8-8-8-------------------------------------|
   1 + 2 + 3 + 4 + 1 + 2 + 3 + 4 + 1 + 2 + 3 + 4 + 1 + 2 + 3 + 4 +

2:16
F|-----------------------------------------------------------------|
C|-----------------------------------------------------------------|
G|---------------------------------3---3-3-3-3---3-3-3-3-3-3-3-3-3-|
C|-0---0-0-0-0---0-0---0-0-0---0-----------------------------------|
   1 + 2 + 3 + 4 + 1 + 2 + 3 + 4 + 1 + 2 + 3 + 4 + 1 + 2 + 3 + 4 +

F|-----------------------------------------------------------------|
C|-----------------------------------------------------------------|
G|-----------------------------------------------------------------|
C|-3---3-3-3-3---3-3---3-3-3-3-----8-8-8-8-8-8-8-8-8-8-8-8-8-8-8-8-|
   1 + 2 + 3 + 4 + 1 + 2 + 3 + 4 + 1 + 2 + 3 + 4 + 1 + 2 + 3 + 4 +

F|-----------------------------------------------------------------|
C|-----------------------------------------------------------------|
G|---------------------------------3---3-3-3-3---3-3-3-3-3-3-3-3-3-|
C|-0---0-0-0-0---0-0---0-0-0---0-----------------------------------|
   1 + 2 + 3 + 4 + 1 + 2 + 3 + 4 + 1 + 2 + 3 + 4 + 1 + 2 + 3 + 4 +

F|-----------------------------------------------------------------|
C|-----------------------------------------------------------------|
G|-----------------------------------------------------------------|
C|-3---3-3-3-3---3-3---3-3-3-3-----7-7-7-7-7-7-7-7-7---5---3---1-0-|
   1 + 2 + 3 + 4 + 1 + 2 + 3 + 4 + 1 + 2 + 3 + 4 + 1 + 2 + 3 + 4 +

2:34
F|-----------------------------------------------------------------|
C|-----------------------------------------------------------------|
G|-----------------------------------------------------------------|
C|-0-------------------------------------------------------------0-|
   1 + 2 + 3 + 4 + 1 + 2 + 3 + 4 + 1 + 2 + 3 + 4 + 1 + 2 + 3 + 4 +

F|-----------------------------------------------------------------|
C|-----------------------------------------------------------------|
G|-----------------------------------------------------------------|
C|-0-------------------------------------------------------------0-|
   1 + 2 + 3 + 4 + 1 + 2 + 3 + 4 + 1 + 2 + 3 + 4 + 1 + 2 + 3 + 4 +

2:43
F|-----------------------------------------------------------------|
C|-----------------------------------------------------------------|
G|-----------------------------------------------------------------|
C|-0---0-0---0-0---0-0---0-0-0-0---0-0---0-0---0-7-8-7-5-5-7-5-3-0-|
   1 + 2 + 3 + 4 + 1 + 2 + 3 + 4 + 1 + 2 + 3 + 4 + 1 + 2 + 3 + 4 +

F|-----------------------------------------------------------------|
C|-----------------------------------------------------------------|
G|-----------------------------------------------------------------|
C|-0---0-0---0-0---0-0---0-0-0-0---0-0---0-0---0-7-8-7-5-5-7-5-3-8-|
   1 + 2 + 3 + 4 + 1 + 2 + 3 + 4 + 1 + 2 + 3 + 4 + 1 + 2 + 3 + 4 +

F|---------------------------------|
C|---------------------------------|
G|---------------------------------|
C|---------------7-----\---\---\-0-|
   1 + 2 + 3 + 4 + 1 + 2 + 3 + 4 + 

2:54
F|-----------------------------------------------------------------|
C|-----------------------------------------------------------------|
G|---------------------------------------------------------0-3-5---|
C|---0-8-0-7-0-5-0-8-0-7-0-7-5-3-0---0-8-0-7-0-5-0-8-0-7-0-------0-|
   1 + 2 + 3 + 4 + 1 + 2 + 3 + 4 + 1 + 2 + 3 + 4 + 1 + 2 + 3 + 4 +

F|-----------------------------------------------------------------|
C|-----------------------------------------------------------------|
G|---------------------------------------------------------0-3-5---|
C|---0-8-0-7-0-5-0-8-0-7-0-7-5-3-3---3-3-3-3-3-3-3-5-5-5-5-------0-|
   1 + 2 + 3 + 4 + 1 + 2 + 3 + 4 + 1 + 2 + 3 + 4 + 1 + 2 + 3 + 4 +

F|-----------------------------------------------------------------|
C|-----------------------------------------------------------------|
G|---------------------------------------------------------0-3-5---|
C|---0-8-0-7-0-5-0-8-0-7-0-7-5-3-0---0-8-0-7-0-5-0-8-0-7-0-------0-|
   1 + 2 + 3 + 4 + 1 + 2 + 3 + 4 + 1 + 2 + 3 + 4 + 1 + 2 + 3 + 4 +

F|-----------------------------------------------------------------|
C|-----------------------------------------------------------------|
G|---------------------------------------------------------0-3-5-5-|
C|---0-8-0-7-0-5-0-8-0-7-0-7-5-3-3---3-3-3-3-3-3-3-5-5-5-5---------|
   1 + 2 + 3 + 4 + 1 + 2 + 3 + 4 + 1 + 2 + 3 + 4 + 1 + 2 + 3 + 4 +

3:13
F|-----------------------------------------------------------------|
C|-----------------------------------------------------------------|
G|---------------------------------3-3-3-3-3-3-3-3-0-1-3-3-3-1-0-3-|
C|-8-8-8-8-8-8-8-8-8-8-8-8-8-8-8-8---------------------------------|
   1 + 2 + 3 + 4 + 1 + 2 + 3 + 4 + 1 + 2 + 3 + 4 + 1 + 2 + 3 + 4 +

F|-----------------------------------------------------------------|
C|-----------------------------------------------------------------|
G|-------------------------------1-3-------------1-4---------------|
C|-8-8-8-8-8-8-8-8-8-8-8-8-8-8-8-----------------------------------|
   1 + 2 + 3 + 4 + 1 + 2 + 3 + 4 + 1 + 2 + 3 + 4 + 1 + 2 + 3 + 4 +

3:22
F|-----------------------------------------------------------------|
C|-----------------------------------------------------------------|
G|---------------------------------3---3-3-3-3---3-3-3-3-3-3-3-3-3-|
C|-0---0-0-0-0---0-0---0-0-0---0-----------------------------------|
   1 + 2 + 3 + 4 + 1 + 2 + 3 + 4 + 1 + 2 + 3 + 4 + 1 + 2 + 3 + 4 +

F|-----------------------------------------------------------------|
C|-----------------------------------------------------------------|
G|-----------------------------------------------------------------|
C|-3---3-3-3-3---3-3---3-3-3-3-----8-8-8-8-8-8-8-8-8-8-8-8-8-8-8-8-|
   1 + 2 + 3 + 4 + 1 + 2 + 3 + 4 + 1 + 2 + 3 + 4 + 1 + 2 + 3 + 4 +

F|-----------------------------------------------------------------|
C|-----------------------------------------------------------------|
G|---------------------------------3---3-3-3-3---3-3-3-3-3-3-3-3-3-|
C|-0---0-0-0-0---0-0---0-0-0---0-----------------------------------|
   1 + 2 + 3 + 4 + 1 + 2 + 3 + 4 + 1 + 2 + 3 + 4 + 1 + 2 + 3 + 4 +

F|-----------------------------------------------------------------|
C|-----------------------------------------------------------------|
G|-----------------------------------------------------------------|
C|-3---3-3-3-3---3-3---3-3-3-3-----7-7-7-7-7-7-7-7-7-7-7-7-7-7-7-7-|
   1 + 2 + 3 + 4 + 1 + 2 + 3 + 4 + 1 + 2 + 3 + 4 + 1 + 2 + 3 + 4 +

3:40
F|-----------------------------------------------------------------|
C|-----------------------------------------------------------------|
G|---------------------------------3---3-3-3-3---3-3-3-3-3-3-3-3-3-|
C|-0---0-0-0-0---0-0---0-0-0---0-----------------------------------|
   1 + 2 + 3 + 4 + 1 + 2 + 3 + 4 + 1 + 2 + 3 + 4 + 1 + 2 + 3 + 4 +

F|-----------------------------------------------------------------|
C|-----------------------------------------------------------------|
G|-----------------------------------------------------------------|
C|-3---3-3-3-3---3-3---3-3-3-3-----8-8-8-8-8-8-8-8-8-8-8-8-8-8-8-8-|
   1 + 2 + 3 + 4 + 1 + 2 + 3 + 4 + 1 + 2 + 3 + 4 + 1 + 2 + 3 + 4 +

F|-----------------------------------------------------------------|
C|-----------------------------------------------------------------|
G|---------------------------------3---3-3-3-3---3-3-3-3-3-3-3-3-3-|
C|-0---0-0-0-0---0-0---0-0-0---0-----------------------------------|
   1 + 2 + 3 + 4 + 1 + 2 + 3 + 4 + 1 + 2 + 3 + 4 + 1 + 2 + 3 + 4 +

F|-----------------------------------------------------------------|
C|-----------------------------------------------------------------|
G|-----------------------------------------------------------------|
C|-3---3-3-3-3---3-3---3-3-3-3-----7-7-7-7-7-7-7-7-7---5---3---1-0-|
   1 + 2 + 3 + 4 + 1 + 2 + 3 + 4 + 1 + 2 + 3 + 4 + 1 + 2 + 3 + 4 +

3:58
F|-----------------------------------------------------------------|
C|-----------------------------------------------------------------|
G|---------------------------------------------------------0-3-5---|
C|---0-8-0-7-0-5-0-5-7-8-7-7-5-3-0---0-8-0-7-0-5-0-5-7-8-7-------0-|
   1 + 2 + 3 + 4 + 1 + 2 + 3 + 4 + 1 + 2 + 3 + 4 + 1 + 2 + 3 + 4 +

F|---------------------------------------------------------------------------------|
C|---------------------------------------------------------------------------------|
G|-------------------------------------------------6-8-5-6-3-5-1-3-0---------------|
C|---0-8-0-7-0-5-0-5-7-8-7-7-5-3-8---8-8-8-8-8-8-8-------------------8-5-7-3-5-1-0-|
   1 + 2 + 3 + 4 + 1 + 2 + 3 + 4 + 1 + 2 + 3 + 4 + 1 + 2 + 3 + 4 + 1 + 2 + 3 + 4 +

F|-----------------------------------------------------------------|
C|-----------------------------------------------------------------|
G|-----------------------------------------------------------------|
C|-0---0-0-----0-0---0-0-------------------------------------------|
   1 + 2 + 3 + 4 + 1 + 2 + 3 + 4 + 1 + 2 + 3 + 4 + 1 + 2 + 3 + 4 +

Tabbed by Dave Vucko

comments
We did not receive enough feedback on this tab! Please rate:
print report bad tab
1 2 3 4 5
I want to post or [tab]
guest
You may want to rate the tab now too:
select rating
Please do not post tabs as comments. Select "correction" instead!