Oops, an error
Loading. Please wait.

Days Are Numbered Bass Tab

4,287 views 18 this week
no commentswrite comment
1 2 3 4 5
excellent!
x 5
Autoscroll
+/-
esc
set tempo
stop
Contributor
Tuning
C# G# C# F# A# D#
Hey! There's an official Ultimate Guitar app which is ideal
for learning songs when you're away from computer. Get the app
WARNING: You are trying to view
                                    content from Ultimate-Guitar.com
                                    in an unauthorized application,
                                    which is prohibited.

                                    Please use an official Ultimate
                                    Guitar Tabs application for iPhone,
                                    iPad or Android to access legitimate
                                    chords, guitar, bass, and drum tabs
                                    from Ultimate-Guitar.com database.

                                    Type "ultimate guitar tabs" in Apple
                                    App Store's or Android Market's
                                    search to find the application.
F#|-----------------------------------------------------------------|
C#|-----------------------------------------------------------------|
G#|-------5---6---5-----0-1---0-1-3-------5---6---5-----0-1---0-1-3-|
C#|-5-5-5-----------1-1-----3-------5-5-5-----------1-1-----3-------|

F#|-----------------------------------------------------------------|
C#|-----------------------------------------------------------------|
G#|-------5---6---5-----0-1-3-1-0---------5---6---5-----0-1---0-1-3-|
C#|-5-5-5-----------1-3-----------3-5-5-5-----------1-1-----3-------|

F#|---------------------------------|
C#|---------------------------------|
G#|-------5---6---5-----0-1-3-1-0---|
C#|-5-5-5-----------1-3-----------3-|

0:13 Verse
F#|-------------------------------------------------------------------|
C#|o-----------------------------------------------------------------o|
G#|o-------5---6---5-----0-1---0-1-3-------5---6---5-----0-1-3-1-0---o| x4
C#|--5-5-5-----------1-1-----3-------5-5-5-----------1-3-----------3--|

0:35
F#|-----------------------------------------------------------------|
C#|-----------------------------------------------------------------|
G#|-------5---6---5-----0-1-3-1-0---------5---6---5-----0-1-3-1-0---|
C#|-5---5---5---5-----3-----------3-5---5---5---5---1-3-----------3-|

0:42
F#|-----------------------------------------------------------------|
C#|-----------------------------------------------------------------|
G#|-------5---6---5-----0-1---0-1-3---------------------------------|
C#|-5-5-5-----------1-1-----3-------5-5-----4-4-----3-3-----1-1-----|

F#|-----------------------------------------------------------------|
C#|-----------------------------------------------------------------|
G#|-5-5-5-5-5-5-5-5-5-5-5-5-5-5-5-5-5-\-----------------------------|
C#|-----------------------------------------------------------------|

0:52
F#|-------------------------------------------------------------------|
C#|o-----------------------------------------------------------------o|
G#|o---------------------------------1-----1-1---1---1-0-0---0-------o|
C#|--1-----1-1---1-----5-5---5-5-5-----------------------------3-3-3--|

1:04
F#|-----------------------------------------------------------------|
C#|-----------------------------------------------------------------|
G#|-----------------------------------------------------------------|
C#|-1---1-1-1-1-1-1-3---3-3-3-3-3-3-4---4-4-4-4-4-3-5-------3-------|

1:09
F#|-----------------------------------------------------------------|
C#|-----------------------------------------------------------------|
G#|---------------------------------5-----5-5---5---5-\-------------|
C#|-1-----1-1---1-----5-5---5-5-5-----------------------------------|

1:15
F#|-----------------------------------------------------------------|
C#|-----------------------------------------------------------------|
G#|-------5---6---5-----0-1---0-1-3-------5---6---5-----0-1-3-1-0---|
C#|-5-5-5-----------1-1-----3-------5-5-5-----------1-3-----------3-|

1:20
F#|-------------------------------------------------------------------|
C#|o-----------------------------------------------------------------o|
G#|o-------5---6---5-----0-1---0-1-3-------5---6---5-----0-1-3-1-0---o| x4
C#|--5-5-5-----------1-1-----3-------5-5-5-----------1-3-----------3--|

1:43
F#|-----------------------------------------------------------------|
C#|-----------------------------------------------------------------|
G#|-------5---6---5-----0-1-3-1-0---------5---6---5-----0-1-3-1-0---|
C#|-5---5---5---5---1-3-----------3-5---5---5---5---1-3-----------3-|

F#|-----------------------------------------------------------------|
C#|-----------------------------------------------------------------|
G#|-------5---6---5-----0-1---0-1-3---------------------------------|
C#|-5-5-5-----------1-1-----3-------5-5-----4-4-----3-3-----1-1-----|

F#|-----------------------------------------------------------------|
C#|-----------------------------------------------------------------|
G#|-5-5-5-5-5-5-5-5-5-5-5-5-5-5-5-5-5-\-----------------------------|
C#|-----------------------------------------------------------------|

2:01 Chorus
F#|-------------------------------------------------------------------|
C#|o-----------------------------------------------------------------o|
G#|o---------------------------------1-----1-1---1---1-0-0---0-------o|
C#|--1-----1-1---1-----5-5---5-5-5-----------------------------3-3-3--|

F#|-----------------------------------------------------------------|
C#|-----------------------------------------------------------------|
G#|-----------------------------------------------------------------|
C#|-1---1-1-1-1-1-1-3---3-3-3-3-3-3-4---4-4-4-4-4-3-5-------3-------|

F#|-----------------------------------------------------------------|
C#|-----------------------------------------------------------------|
G#|---------------------------------5-----5-5---5---5-\-------------|
C#|-1-----1-1---1-----5-5---5-5-5-----------------------------------|

2:23
F#|-------------------------------------------------------------------------------------------------|
C#|-------------------------------------------------------------------------------------------------|
F#|-10-\--------9-\-------/-8-\---------6-\-3---5---6---6-6-----6---8---6---5---5-5-----5---3---1---|
C#|-------------------------------------------------------------------------------------------------|
    1   2   3   1   2   3   1   2   3   1   2   3   1   2   3   1   2   3   1   2   3   1   2   3

F#|-------------------------------------------------------------------------------------------------|
C#|-------------------------------------------------------------------------------------------------|
F#|-10-\------/-9-\-------/-8-\-------/-6-\-3---5---6---6-6-----6---8---6---5---5-5-----5---3---1---|
C#|-------------------------------------------------------------------------------------------------|
    1   2   3   1   2   3   1   2   3   1   2   3   1   2   3   1   2   3   1   2   3   1   2   3

2:40
F#|-------------------------------------------------------------------------------------------------|
C#|-------------------------------------------------------------------------------------------------|
G#|-------------------------------------------------6---6-6---6-6---8-8-6---5---5-5-----5---1---0---|
C#|-5-5-5-5-5-5-4-4-4-4-4-4-3-3-3-3-3-3-1-1-1-1-1-1-------------------------------------------------|
    1   2   3   1   2   3   1   2   3   1   2   3   1   2   3   1   2   3   1   2   3   1   2   3

F#|-------------------------------------------------------------------------------------------------|
C#|-------------------------------------------------------------------------------------------------|
G#|-------------------------------------------------6---6-6---6-6---8-8-6---5-----------------------|
C#|-5-5-5-5-5-5-4-4-4-4-4-4-3-3-3-3-3-3-1-1-1-1-1-1-------------------------------------------------|
    1   2   3   1   2   3   1   2   3   1   2   3   1   2   3   1   2   3   1   2   3   1   2   3

Rest

3:01
F#|-------------------------------------------------------------------|
C#|o-----------------------------------------------------------------o|
G#|o---------------------------------1-----1-1---1---1-0-0---0-------o|
C#|--1-----1-1---1-----5-5---5-5-5-----------------------------3-3-3--|

F#|-----------------------------------------------------------------|
C#|-----------------------------------------------------------------|
G#|-----------------------------------------------------------------|
C#|-1---1-1-1-1-1-1-3---3-3-3-3-3-3-4---4-4-4-4-4-3-5-------3-------|

F#|-----------------------------------------------------------------|
C#|-----------------------------------------------------------------|
G#|---------------------------------5-----5-5---5---5-\-------------|
C#|-1-----1-1---1-----5-5---5-5-5-----------------------------------|
    1 2 3 4 1 2 3 4 1 2 3 4 1 2 3 4 1 2 3 4 1 2 3 4 1 2 3 4 1 2 3 4 

3:23
F#|-------------------------------------------------------------------|-----|
C#|o-----------------------------------------------------------------o|-----|
G#|o-------5---6---5-----0-1---0-1-3-------5---6---5-----0-1---0-1-3-o|-----|
C#|--5-5-5-----------1-1-----3-------5-5-5-----------1-1-----3--------|-5-\-|
Tabbed by Dave Vucko
comments
print report bad tab
I want to post or [tab]
guest
You may want to rate the tab now too:
select rating
Please do not post tabs as comments. Select "correction" instead!