Oops, an error
Loading. Please wait.

Fallen Angels Tab

ver3
ver3

Intro

Solo

Whole song

More versions @911Tabs.com
3,381 views 9 this week
4 commentsread comments
1 2 3 4 5
worth learning
x 5
Autoscroll
+/-
esc
set tempo
stop
Contributor
Difficulty
Tuning
intermediate
C# G# C# F# A# D#
Hey! There's an official Ultimate Guitar app which is ideal
for learning songs when you're away from computer. Get the app
WARNING: You are trying to view
                                    content from Ultimate-Guitar.com
                                    in an unauthorized application,
                                    which is prohibited.

                                    Please use an official Ultimate
                                    Guitar Tabs application for iPhone,
                                    iPad or Android to access legitimate
                                    chords, guitar, bass, and drum tabs
                                    from Ultimate-Guitar.com database.

                                    Type "ultimate guitar tabs" in Apple
                                    App Store's or Android Market's
                                    search to find the application.
I saw tabs for this song, but to be honest they weren't really that great.
I can already play the song, so I figured I would help everyone out and give
them a correct tab. :)
===============================================================================
Drop C#/Db

Guitar I - 'Jinxx'
Guitar II - Jake Pitts

. = palm mute
* = pinch harmonic
/ = slide up
\ = slide down
h = hammer-on
p = pull-off
b = bend
r = release bend
~ = let note ring
v = vibrato
x = dead note
[n] = whammy bar ( n for number )
===============================================================================

Guitar I
Eb|-----------10-8--------10-8--------10--8-10-8-------------------|
Bb|-/11--8-11------10----------------------------10-11-10-11-13-11-|
Gb|-------------------/10------10--10------------------------------|
Db|----------------------------------------------------------------|
Ab|----------------------------------------------------------------|
Db|----------------------------------------------------------------|

Eb|-------------------------151718-|
Bb|-151617181817161516171818-------|
Gb|--------------------------------|
Db|--------------------------------|
Ab|--------------------------------|
Db|--------------------------------|

Guitar II
Eb|---------6-5------6-5------6--5-6-5--------------|
Bb|-/8----8-----6----------------------7-8-7-8-10-8-|
Gb|-----7---------/7-----7--7-----------------------|
Db|-------------------------------------------------|
Ab|-------------------------------------------------|
Db|-------------------------------------------------|

Eb|-------------------------111315-|
Bb|-111314151514131113141515-------|
Gb|--------------------------------|
Db|--------------------------------|
Ab|--------------------------------|
Db|--------------------------------|

Guitar I & II
Eb|-------------------------------------------------|
Gb|-------------------------------------------------|
Bb|-----------------------------2---2h3-----2---2h3-|
Db|-5---7---7h8-5---7---7h8-1-----------1-----------|
Ab|-5-----------5-----------1-----------1-----------|
Db|-5-5---5-----5-5---5-----1-1---1-----1-1---1-----|
      .   .       .   .       .   .       .   .


Eb|--------------------------------------------------|
Gb|--------------------------------------------------|
Bb|-----2---2h3-----2---2h3--------------------------|
Db|-3-----------3-----------0---7---7h8-1---1-/3-3-3-|
Ab|-3-----------3-----------0-----------1---1-/3-3-3-|
Db|-3-3---3-----3-3---3-----0-0---0-----1-1-1-/3-3-3-|
      .   .       .   .       .   .       .
Guitar I
Eb|-------------------------------------------------|
Gb|-------------------------------------------------|
Bb|-----------------------------2---2h3-----2---2h3-|
Db|-5---7---7h8-5---7---7h8-1-----------1-----------|
Ab|-5-----------5-----------1-----------1-----------|
Db|-5-5---5-----5-5---5-----1-1---1-----1-1---1-----|
      .   .       .   .       .   .       .   .

Eb|---------------------------------------------------|
Gb|---------------------------------------------------|
Bb|-----2---2h3-----2---2h3---------------------------|
Db|-3-----------3-----------0---7---7h8-1---1---------|
Ab|-3-----------3-----------0-----------1---1---1-0---|
Db|-3-3---3-----3-3---3-----0-0---0-----1-1-1-1-----3-|
      .   .       .   .       .   .       .   .

Guitar II
Eb|-------------------------------------------------|
Gb|-------------------------------------------------|
Bb|-----5---5h7-----5---5h7-----5---5h7-----5---5h7-|
Db|-5-----------5-----------1-----------1-----------|
Ab|-5-----------5-----------1-----------1-----------|
Db|-5-5---5-----5-5---5-----1-1---1-----1-1---1-----|
      .   .       .   .       .   .       .   .
Eb|---------------------------------------------------|
Gb|---------------------------------------------------|
Bb|-----5---5h7-----5---5h7-----5---5h7---------------|
Db|-3-----------3-----------0-----------1---1---------|
Ab|-3-----------3-----------0-----------1---1---1-0---|
Db|-3-3---3-----3-3---3-----0-0---0-----1-1-1-1-----3-|
      .   .       .   .       .   .       .   .

Guitar I
Eb|-------------------------------|----------------|
Gb|-------------------------------|----------------|
Bb|-------------------------------|----------------|
Db|-1------3----------------------|-1------3-------|
Ab|-1-(x8)-3-(x8)-----3---5-3-0-1-|-1-(x8)-3-(x16)-|
Db|-1------3------3-3---3---------|-1------3-------|
                  . .   .

Guitar II
Eb|-------------------------------|----------------|
Gb|-------------------------------|----------------|
Bb|-------------------------------|----------------|
Db|-1------3----------------------|-1------3-------|
Ab|-1-(x8)-3-(x8)-----0---1-0-----|-1-(x8)-3-(x16)-|
Db|-1------3------3-3---3-----3-5-|-1------3-------|
                  . .   .

Guitar I
Eb|------------------------------------|-----------------|
Bb|------------------------------------|-----------------|
Gb|------------------------------------|-----------------|
Db|-5------1------3------8------7------|-----------------|
Ab|-5-(x8)-1-(x8)-3-(x8)-8-(x4)-7-(x4)-|-7-(x3)----------|
Db|-5------1------3------8------7------|-7------12-12-12-|

Guitar II                                            on last time
Eb|--------------------------------10------8------|-13------11------|
Bb|-11------8------11------10-------x-(x4)-x-(x4)-|--x-(x4)--x-(x3)-|
Gb|--x-(x8)-x-(x4)--x-(x4)--x-(x8)--7------5------|-10-------8------|
Db|--8------5-------8-------7---------------------|-----------------|
Ab|-----------------------------------------------|-----------------|
Db|-----------------------------------------------|-----------------|(x2)

Guitar I
Eb|-------------------------------------------------------------|
Bb|-/11--8-10-11-11-11-13-11-10~-------11-10-11-13-11-10--------|
Gb|------------------------------10-12-------------------12-10~-|
Db|-------------------------------------------------------------|
Ab|-------------------------------------------------------------|
Db|-------------------------------------------------------------|

Guitar II
Eb|-/10-------10-10-10-11-10----------13-13-11-10--------------|
Bb|------11-13---------------13~-10-11-------------13-11-10----|
Gb|--------------------------------------------------------12~-|
Db|------------------------------------------------------------|
Ab|------------------------------------------------------------|
Db|------------------------------------------------------------|

Guitar I
Eb|---------------------------------11-10-11-13-15-13-11-----|
Bb|-/11--8-10-11-11-11-13-11-13-10~----------------------13~-|
Gb|----------------------------------------------------------|
Db|----------------------------------------------------------|
Ab|----------------------------------------------------------|
Db|----------------------------------------------------------|

Guitar II
Eb|-/10--------10-10-10-11-10-13~-15-13-15-17-18-17-15-----|
Bb|------11-13-----------------------------------------10~-|
Gb|--------------------------------------------------------|
Db|--------------------------------------------------------|
Ab|--------------------------------------------------------|
Db|--------------------------------------------------------|

Guitar I
Eb|---------------------------------------------------------------------------------|
Bb|-15-15b16r15-15~-13-15-13-11~-11-11b13r11-11~-11-13-11-10~-10-10b11r10-10-11-10~-|
Gb|---------------------------------------------------------------------------------|
Db|---------------------------------------------------------------------------------|
Ab|---------------------------------------------------------------------------------|
Db|---------------------------------------------------------------------------------|

Guitar II
Eb|----------------------------------------------------------------------|
Bb|-11b13r11-11~-10-11-10-8~-8-10b11r10-10~-8-10-8-6~-8-8b10r8-8~-6-8-6~-|
Gb|----------------------------------------------------------------------|
Db|----------------------------------------------------------------------|
Ab|----------------------------------------------------------------------|
Db|----------------------------------------------------------------------|
Guitar I
Eb|---|
Bb|---|
Gb|---|
Db|---|
Ab|---|
Db|---|

Guitar II
Eb|--------------------------8-|
Bb|--------8h0h11p10p8h10h11---|
Gb|-7h8h10---------------------|
Db|----------------------------|
Ab|----------------------------|
Db|----------------------------|

Eb|-----------------------------------------------------------------13-|
Gb|-10p8h10h11p10p8h10h11-13p10h11h13-15p11h15h16p15h16p15p13h15h16----|
Bb|--------------------------------------------------------------------|
Db|--------------------------------------------------------------------|
Ab|--------------------------------------------------------------------|
Db|--------------------------------------------------------------------|

Guitar I & II
Eb|-------------------------------------------------|
Gb|-------------------------------------------------|
Bb|-----------------------------2---2h3-----2---2h3-|
Db|-5---7---7h8-5---7---7h8-1-----------1-----------|
Ab|-5-----------5-----------1-----------1-----------|
Db|-5-5---5-----5-5---5-----1-1---1-----1-1---1-----|
      .   .       .   .       .   .       .   .

Eb|--------------------------------------------------|
Gb|--------------------------------------------------|
Bb|-----2---2h3-----2---2h3--------------------------|
Db|-3-----------3-----------0---7---7h8-1---1-/3-3-3-|
Ab|-3-----------3-----------0-----------1---1-/3-3-3-|
Db|-3-3---3-----3-3---3-----0-0---0-----1-1-1-/3-3-3-|
      .   .       .   .       .   .       .
Guitar I
Eb|-------------------------------------------------|
Gb|-------------------------------------------------|
Bb|-----------------------------2---2h3-----2---2h3-|
Db|-5---7---7h8-5---7---7h8-1-----------1-----------|
Ab|-5-----------5-----------1-----------1-----------|
Db|-5-5---5-----5-5---5-----1-1---1-----1-1---1-----|
      .   .       .   .       .   .       .   .

Eb|---------------------------------------------------|
Gb|---------------------------------------------------|
Bb|-----2---2h3-----2---2h3---------------------------|
Db|-3-----------3-----------0---7---7h8-1---1---------|
Ab|-3-----------3-----------0-----------1---1---1-0---|
Db|-3-3---3-----3-3---3-----0-0---0-----1-1-1-1-----3-|
      .   .       .   .       .   .       .   .

Guitar II
Eb|-------------------------------------------------|
Gb|-------------------------------------------------|
Bb|-----5---5h7-----5---5h7-----5---5h7-----5---5h7-|
Db|-5-----------5-----------1-----------1-----------|
Ab|-5-----------5-----------1-----------1-----------|
Db|-5-5---5-----5-5---5-----1-1---1-----1-1---1-----|
      .   .       .   .       .   .       .   .
Eb|---------------------------------------------------|
Gb|---------------------------------------------------|
Bb|-----5---5h7-----5---5h7-----5---5h7---------------|
Db|-3-----------3-----------0-----------1---1---------|
Ab|-3-----------3-----------0-----------1---1---1-0---|
Db|-3-3---3-----3-3---3-----0-0---0-----1-1-1-1-----3-|
      .   .       .   .       .   .       .   .

Guitar I
Eb|-------------------------------|----------------|
Gb|-------------------------------|----------------|
Bb|-------------------------------|----------------|
Db|-1------3----------------------|-1------3-------|
Ab|-1-(x8)-3-(x8)-----3---5-3-0-1-|-1-(x8)-3-(x16)-|
Db|-1------3------3-3---3---------|-1------3-------|
                  . .   .

Guitar II
Eb|-------------------------------|----------------|
Gb|-------------------------------|----------------|
Bb|-------------------------------|----------------|
Db|-1------3----------------------|-1------3-------|
Ab|-1-(x8)-3-(x8)-----0---1-0-----|-1-(x8)-3-(x16)-|
Db|-1------3------3-3---3-----3-5-|-1------3-------|
                  . .   .

Guitar I
Eb|------------------------------------|-----------------|
Bb|------------------------------------|-----------------|
Gb|------------------------------------|-----------------|
Db|-5------1------3------8------7------|-----------------|
Ab|-5-(x8)-1-(x8)-3-(x8)-8-(x4)-7-(x4)-|-7-(x3)----------|
Db|-5------1------3------8------7------|-7------12-12-12-|

Guitar II                                            on last time
Eb|--------------------------------10------8------|-13------11------|
Bb|-11------8------11------10-------x-(x4)-x-(x4)-|--x-(x4)--x-(x3)-|
Gb|--x-(x8)-x-(x4)--x-(x4)--x-(x8)--7------5------|-10-------8------|
Db|--8------5-------8-------7---------------------|-----------------|
Ab|-----------------------------------------------|-----------------|
Db|-----------------------------------------------|-----------------|(x2)

Guitar I
Eb|-------------------------------------------------------------|
Bb|-/11--8-10-11-11-11-13-11-10~-------11-10-11-13-11-10--------|
Gb|------------------------------10-12-------------------12-10~-|
Db|-------------------------------------------------------------|
Ab|-------------------------------------------------------------|
Db|-------------------------------------------------------------|

Guitar II
Eb|-/10-------10-10-10-11-10----------13-13-11-10--------------|
Bb|------11-13---------------13~-10-11-------------13-11-10----|
Gb|--------------------------------------------------------12~-|
Db|------------------------------------------------------------|
Ab|------------------------------------------------------------|
Db|------------------------------------------------------------|

Guitar I
Eb|---------------------------------11-10-11-13-15-13-11-----|
Bb|-/11--8-10-11-11-11-13-11-13-10~----------------------13~-|
Gb|----------------------------------------------------------|
Db|----------------------------------------------------------|
Ab|----------------------------------------------------------|
Db|----------------------------------------------------------|

Guitar II
Eb|-/10--------10-10-10-11-10-13~-15-13-15-17-18-17-15-----|
Bb|------11-13-----------------------------------------10~-|
Gb|--------------------------------------------------------|
Db|--------------------------------------------------------|
Ab|--------------------------------------------------------|
Db|--------------------------------------------------------|

Guitar I
Eb|---------------------------------------------------------------------------------|
Bb|-15-15b16r15-15~-13-15-13-11~-11-11b13r11-11~-11-13-11-10~-10-10b11r10-10-11-10~-|
Gb|---------------------------------------------------------------------------------|
Db|---------------------------------------------------------------------------------|
Ab|---------------------------------------------------------------------------------|
Db|---------------------------------------------------------------------------------|

Guitar II
Eb|----------------------------------------------------------------------|
Bb|-11b13r11-11~-10-11-10-8~-8-10b11r10-10~-8-10-8-6~-8-8b10r8-8~-6-8-6~-|
Gb|----------------------------------------------------------------------|
Db|----------------------------------------------------------------------|
Ab|----------------------------------------------------------------------|
Db|----------------------------------------------------------------------|

Guitar I
Eb|------------------------------------|
Bb|------------------------------------|
Gb|------------------------------------|
Db|-5------1------3------8------7------|
Ab|-5-(x8)-1-(x8)-3-(x8)-8-(x4)-8-(x4)-|
Db|-5------1------3------8------7------|

Guitar II
Eb|-----------------------------------------------------------------|
Bb|-----10---10b11r10-8~-13-13b15r13-11~-10-11-10-10*--11*-10*-8*-6-|
Gb|-/7-----7--------------------------------------------------------|
Db|-----------------------------------------------------------------|
Ab|-----------------------------------------------------------------|
Db|-----------------------------------------------------------------|
           .

Eb|--------------------------------------------------------------17-15-|
Bb|-----10---10b11r10-8~-13-13-15-15-15~----------------------15-------|
Gb|-/7-----7-----------------------------------------14----14----------|
Db|--------------------------------------------12-15----15-------------|
Ab|--------------------------------------12-13-------------------------|
Db|--------------------------------------------------------------------|
           .

Guitar I
Eb|-15h17h18-15h17h18-------------------13h15h17-13h15h17-------------------|
Bb|-------------------16h18h20-16h18h20-------------------15h16h18-15h16h18-|
Gb|-------------------------------------------------------------------------|
Db|-------------------------------------------------------------------------|
Ab|-------------------------------------------------------------------------|
Db|-------------------------------------------------------------------------|

Eb|-11h13h15-11h13h15------------------------------------------------|
Bb|-------------------13h15h16-13h15h16-16-15-13h15p13-11-13-11-10-8-|
Gb|------------------------------------------------------------------|
Db|------------------------------------------------------------------|
Ab|------------------------------------------------------------------|
Db|------------------------------------------------------------------|

Eb|-----15----15-18-18-18-18-\13-13-13-13-/15-15-15-15-/17-17-17-17-\11-11-11-11-|
Bb|------------------------------------------------------------------------------|
Gb|-/12----12--------------------------------------------------------------------|
Db|------------------------------------------------------------------------------|
Ab|------------------------------------------------------------------------------|
Db|------------------------------------------------------------------------------|

Eb|-/13-13-13-10~-|
Bb|---------------|
Gb|---------------|
Db|---------------|
Ab|---------------|
Db|---------------|

Guitar II
Eb|-11h13h15-11h13h15-------------------10h11h13-10h11h13-------------------|
Bb|-------------------13h15h16-13h15h16-------------------11h13h15-11h13h15-|
Gb|-------------------------------------------------------------------------|
Db|-------------------------------------------------------------------------|
Ab|-------------------------------------------------------------------------|
Db|-------------------------------------------------------------------------|

Eb|-8h10h11-8h10h11-------------------------------------------------|
Bb|-----------------10h11h13-10h11h13-13-11-10h11p10----------------|
Gb|--------------------------------------------------12-14-12-10----|
Db|--------------------------------------------------------------12-|
Ab|-----------------------------------------------------------------|
Db|-----------------------------------------------------------------|

Eb|-----15-----------------------------------------------------------------------|
Bb|-----------15-20-20-20-20-\15-15-15-15-/16-16-16-16-/18-18-18-18-\13-13-13-13-|
Gb|-/12----12--------------------------------------------------------------------|
Db|------------------------------------------------------------------------------|
Ab|------------------------------------------------------------------------------|
Db|------------------------------------------------------------------------------|

Eb|---------------|
Bb|-/15-15-15-11~-|
Gb|---------------|
Db|---------------|
Ab|---------------|
Db|---------------|

Guitar I
Eb|---|
Bb|---|
Gb|---|
Db|---|
Ab|---|
Db|---|

Guitar II
Eb|------|
Bb|------|
Gb|-[10]-|
Db|------|
Ab|------|
Db|------|

Guitar I
Eb|------------------------------------|-----------------|
Bb|------------------------------------|-----------------|
Gb|------------------------------------|-----------------|
Db|-5------1------3------8------7------|-----------------|
Ab|-5-(x8)-1-(x8)-3-(x8)-8-(x4)-7-(x4)-|-7-(x3)----------|
Db|-5------1------3------8------7------|-7------12-12-12-|

Guitar II                                            on last time
Eb|--------------------------------10------8------|-13------11------|
Bb|-11------8------11------10-------x-(x4)-x-(x4)-|--x-(x4)--x-(x3)-|
Gb|--x-(x8)-x-(x4)--x-(x4)--x-(x8)--7------5------|-10-------8------|
Db|--8------5-------8-------7---------------------|-----------------|
Ab|-----------------------------------------------|-----------------|
Db|-----------------------------------------------|-----------------|(x2)

Guitar I
Eb|-------------------------------------------------------------|
Bb|-/11--8-10-11-11-11-13-11-10~-------11-10-11-13-11-10--------|
Gb|------------------------------10-12-------------------12-10~-|
Db|-------------------------------------------------------------|
Ab|-------------------------------------------------------------|
Db|-------------------------------------------------------------|

Guitar II
Eb|-/10-------10-10-10-11-10----------13-13-11-10--------------|
Bb|------11-13---------------13~-10-11-------------13-11-10----|
Gb|--------------------------------------------------------12~-|
Db|------------------------------------------------------------|
Ab|------------------------------------------------------------|
Db|------------------------------------------------------------|

Guitar I
Eb|---------------------------------11-10-11-13-15-13-11-----|
Bb|-/11--8-10-11-11-11-13-11-13-10~----------------------13~-|
Gb|----------------------------------------------------------|
Db|----------------------------------------------------------|
Ab|----------------------------------------------------------|
Db|----------------------------------------------------------|

Guitar II
Eb|-/10--------10-10-10-11-10-13~-15-13-15-17-18-17-15-----|
Bb|------11-13-----------------------------------------10~-|
Gb|--------------------------------------------------------|
Db|--------------------------------------------------------|
Ab|--------------------------------------------------------|
Db|--------------------------------------------------------|
Guitar I
Eb|------------------------------------|-----------------|
Bb|------------------------------------|-----------------|
Gb|------------------------------------|-----------------|
Db|-5------1------3------8------7------|-----------------|
Ab|-5-(x8)-1-(x8)-3-(x8)-8-(x4)-7-(x4)-|-7-(x3)----------|
Db|-5------1------3------8------7------|-7------12-12-12-|

Guitar II                                            on last time
Eb|--------------------------------10------8------|-13------11------|
Bb|-11------8------11------10-------x-(x4)-x-(x4)-|--x-(x4)--x-(x3)-|
Gb|--x-(x8)-x-(x4)--x-(x4)--x-(x8)--7------5------|-10-------8------|
Db|--8------5-------8-------7---------------------|-----------------|
Ab|-----------------------------------------------|-----------------|
Db|-----------------------------------------------|-----------------|(x2)

Guitar I
Eb|-------------------------------------------------------------|
Bb|-/11--8-10-11-11-11-13-11-10~-------11-10-11-13-11-10--------|
Gb|------------------------------10-12-------------------12-10~-|
Db|-------------------------------------------------------------|
Ab|-------------------------------------------------------------|
Db|-------------------------------------------------------------|

Guitar II
Eb|-/10-------10-10-10-11-10----------13-13-11-10--------------|
Bb|------11-13---------------13~-10-11-------------13-11-10----|
Gb|--------------------------------------------------------12~-|
Db|------------------------------------------------------------|
Ab|------------------------------------------------------------|
Db|------------------------------------------------------------|

Guitar I
Eb|---------------------------------11-10-11-13-15-13-11----|
Bb|-/11--8-10-11-11-11-13-11-13-10~-------------------------|
Gb|---------------------------------------------------------|
Db|------------------------------------------------------5\-|
Ab|------------------------------------------------------5\-|
Db|------------------------------------------------------5\-|

Guitar II
Eb|-/10--------10-10-10-11-10-13~-15-13-15-17-18-17-15----|
Bb|------11-13--------------------------------------------|
Gb|-------------------------------------------------------|
Db|----------------------------------------------------5\-|
Ab|----------------------------------------------------5\-|
Db|----------------------------------------------------5\-|
comments
print report bad tab
4 comments total. Showing first comments.
-1 reply
Emo Fag Kid wrote on July 8 2011, 06:40 am

This isn't how Jake and Jinxx play it...plus you haven't tabbed the rhythm guitar behind the harmonies

0 reply
ANVSterling wrote on July 11 2011, 02:08 pm

I didn't have the time to do that yet? And I've seen them play this song live, and that's where I tabbed it from. Live performance.

0 reply
iamthesaint wrote on July 11 2011, 02:12 pm

FUCKYEAH.!!

I want to post or [tab]
guest
You may want to rate the tab now too:
select rating
Please do not post tabs as comments. Select "correction" instead!