Oops, an error
Loading. Please wait.

Fear Transmission 3 As War Fades Tab

218 views 3 this week
no commentswrite comment
1 2 3 4 5
excellent!
x 4
Autoscroll
+/-
esc
set tempo
stop
Contributor
WARNING: You are trying to view
                                    content from Ultimate-Guitar.com
                                    in an unauthorized application,
                                    which is prohibited.

                                    Please use an official Ultimate
                                    Guitar Tabs application for iPhone,
                                    iPad or Android to access legitimate
                                    chords, guitar, bass, and drum tabs
                                    from Ultimate-Guitar.com database.

                                    Type "ultimate guitar tabs" in Apple
                                    App Store's or Android Market's
                                    search to find the application.
-------------------------------------------------------------------------------
                     F.E.A.R Transmission 3: As War Fades
-------------------------------------------------------------------------------

Tuning: Drop C#


                 ****************************************
                           VIOLIN 1 / (GUITAR)
                 ****************************************

D#|-----------7--------7-9-10------7-9-10-----7-9-10-9-7-9-10-9-10-14-12---|
A#|---12-------------7-----------------------------------------------------|
F#|------------------------------------------------------------------------|
C#|----9-------------------------------------------------------------------|
G#|------------------------------------------------------------------------|
C#|------------------------------------------------------------------------|

D#|---------9-10------7-9-10------7-9-10-9-7-9-10-9-10-14------|
A#|------12-----------------------------------------------12---|
F#|---11-------------------------------------------------------|
C#|------------------------------------------------------------|
G#|------------------------------------------------------------|
C#|------------------------------------------------------------|

D#|---------9-10------7-9-10------7-9-10-9-7-9-10-9-10-14------|
A#|------12-----------------------------------------------12---|
F#|---11-------------------------------------------------------|
C#|------------------------------------------------------------|
G#|------------------------------------------------------------|
C#|------------------------------------------------------------|

D#|---------9-10------7-9-10------7-9-10-9-7-9-10-9-7-5--------|
A#|------12---------------------------------------------7------|
F#|---11-------------------------------------------------------|
C#|------------------------------------------------------------|
G#|------------------------------------------------------------|
C#|------------------------------------------------------------|

D#|---------4--5------2--4--5------2-4-5-4-2-4-5-4-5-9---------|
A#|------7-----------------------------------------------7-----|
F#|---6--------------------------------------------------------|
C#|------------------------------------------------------------|
G#|------------------------------------------------------------|
C#|------------------------------------------------------------|

D#|---------4--5------2--4--5------2-4-5-4-2-4-5-4-5-9---------|
A#|------7-----------------------------------------------7-----|
F#|---6--------------------------------------------------------|
C#|------------------------------------------------------------|
G#|------------------------------------------------------------|
C#|------------------------------------------------------------|

D#|---------4--5------2--4--5------2-4-5-4-2-4-5-4-5-9---------|
A#|------7-----------------------------------------------7-----|
F#|---6--------------------------------------------------------|
C#|------------------------------------------------------------|
G#|------------------------------------------------------------|
C#|------------------------------------------------------------|

D#|---------4--5------2--4--5------2-4-5-4-2-4-5-4-5-9---------|
A#|------7-----------------------------------------------------|
F#|---6--------------------------------------------------------|
C#|------------------------------------------------------------|
G#|------------------------------------------------------------|
C#|------------------------------------------------------------|



                 ****************************************
                           VIOLIN 2 / (GUITAR)
                 ****************************************

   Starts at 00:10

D#|---------------0---2-------2---0-------0-------2---7----------------|
A#|---0---2---3-----------3-----------3-------3-----------7-------7----|
F#|-----------------------------------------------------------7--------|
C#|--------------------------------------------------------------------|
G#|--------------------------------------------------------------------|
C#|--------------------------------------------------------------------|

D#|---------------0---------------0---------------0-------0------------|
A#|---0---2---3-------7-------7-----------0-----------7----------------|
F#|-----------------------7-----------7-------7---------------7---6----|
C#|--------------------------------------------------------------------|
G#|--------------------------------------------------------------------|
C#|--------------------------------------------------------------------|

D#|---------------0---------------0---------------0--------------------|
A#|---0---2---3-------7-------7-----------0-----------7----------------|
F#|-----------------------7-----------7-------7-----------7-------7----|
C#|-----------------------------------------------------------7--------|
G#|--------------------------------------------------------------------|
C#|--------------------------------------------------------------------|

D#|-------4---5---7---9-------9---7---5-------5---7---9---7---5---4----|
A#|---7-------------------10--------------7----------------------------|
F#|--------------------------------------------------------------------|
C#|--------------------------------------------------------------------|
G#|--------------------------------------------------------------------|
C#|--------------------------------------------------------------------|

D#|-------4---5---7---9-------9---7---5-------5---9---14---------------|
A#|---2-------------------10--------------7---------------14-----------|
F#|-----------------------------------------------------------14--13---|
C#|--------------------------------------------------------------------|
G#|--------------------------------------------------------------------|
C#|--------------------------------------------------------------------|

D#|-------------------9-------9---7---5-------5---7---9---7---5---4----|
A#|-----------10--12------10--------------7----------------------------|
F#|---11--13-----------------------------------------------------------|
C#|--------------------------------------------------------------------|
G#|--------------------------------------------------------------------|
C#|--------------------------------------------------------------------|

D#|-------4---5---7---9-------9---7---5-------5---9---14---------------|
A#|---2-------------------10--------------7---------------14-----------|
F#|-----------------------------------------------------------14--13---|
C#|--------------------------------------------------------------------|
G#|--------------------------------------------------------------------|
C#|--------------------------------------------------------------------|





                 ****************************************
                           VIOLIN 3 / (GUITAR)
                 ****************************************

   Starts at 00:17 

D#|---22--21--19-----22--21--19--19------22--21--19-----22--21--22--24---|
A#|----------------------------------19----------------------------------|
F#|----------------------------------------------------------------------|
C#|----------------------------------------------------------------------|
G#|----------------------------------------------------------------------|
C#|----------------------------------------------------------------------|

D#|----26----26-----26----26-----26----26-----26----25----|
A#|-------------------------------------------------------|===
F#|----23----23-----23----23-----23----23-----23----22----| ===\
C#|-------------------------------------------------------|     Repeat until end
G#|-------------------------------------------------------| ===/
C#|-------------------------------------------------------|===



                 ****************************************
                              CELLO / (BASS)
                 ****************************************


      W     W     W     W     H   H     W     W      W     H   H
      |     |     |     |     |   |     |     |      |     |   |
F#|------------------------------------------------------------------|
C#|------------------------------------------------------------------|
G#|---------2--s--5---------------------2--s--5----------------------|
C#|---------------------5-----2---4------------------5-----2---4-----|

        W     W     W     H   H     W     W      W     H   H
        |     |     |     |   |     |     |      |     |   |
F#|------------------------------------------------------------------|
C#|------------------------------------------------------------------|
G#|-----2--s--5---------------------2--s--5--------------------------|
C#|-----------------5-----2---4------------------5-----2---4---------|

        W     W     W     H   H     W     W      W     H   H
        |     |     |     |   |     |     |      |     |   |
F#|------------------------------------------------------------------|
C#|------------------------------------------------------------------|
G#|-----2--s--5---------------------2--s--5--------------------------|
C#|-----------------5-----2---4------------------5-----2---4---------|

        W     W     W     H   H     W     W      W     H   H
        |     |     |     |   |     |     |      |     |   |
F#|------------------------------------------------------------------|
C#|------------------------------------------------------------------|
G#|-----2--s--5---------------------2--s--5--------------------------|
C#|-----------------5-----2---4------------------5-----2---4---------|

        W     W     W     H   H     W     W      W     H   H
        |     |     |     |   |     |     |      |     |   |
F#|--------s--2------------------------s--2--------------------------|
C#|-----4-----------0---------------4------------0-------------------|
G#|-----------------------2---4------------------------2---4---------|
C#|------------------------------------------------------------------|

        W     W     W     H   H     W     W      W     H   H
        |     |     |     |   |     |     |      |     |   |
F#|--------s--2------------------------s--2--------------------------|
C#|-----4-----------0---------------4------------0-------------------|
G#|-----------------------2---4------------------------2---4---------|
C#|------------------------------------------------------------------|

        W     W     W     H   H     W     W      W     H   H
        |     |     |     |   |     |     |      |     |   |
F#|--------s--2------------------------s--2--------------------------|
C#|-----4-----------0---------------4------------0-------------------|
G#|-----------------------2---4------------------------2---4---------|
C#|------------------------------------------------------------------|

        W     W     W     H   H     W     W      W     H   H
        |     |     |     |   |     |     |      |     |   |
F#|--------s--2------------------------s--2--------------------------|
C#|-----4-----------0---------------4------------0-------------------|
G#|-----------------------2---4------------------------2---4---------|
C#|------------------------------------------------------------------|




Last Part: (In the End)

D#|--------9----------9-----|
A#|-----10---10----10---10--|
F#|--11---------11----------|
C#|-------------------------|
G#|-------------------------|
C#|-------------------------|



************************************************************************

W - Whole Note
H - Half Note
s - slide
I want to post or [tab]
guest
You may want to rate the tab now too:
select rating
Please do not post tabs as comments. Select "correction" instead!