Oops, an error
Loading. Please wait.

God Bless You Bass Tab

ver1
ver1

Whole song

Interactive

More versions @911Tabs.com
3,534 views 6 this week
no commentswrite comment
1 2 3 4 5
excellent!
x 4
Autoscroll
+/-
esc
set tempo
stop
Contributor
Tuning
C# G# C# F# A# D#
Hey! There's an official Ultimate Guitar app which is ideal
for learning songs when you're away from computer. Get the app
WARNING: You are trying to view
                                    content from Ultimate-Guitar.com
                                    in an unauthorized application,
                                    which is prohibited.

                                    Please use an official Ultimate
                                    Guitar Tabs application for iPhone,
                                    iPad or Android to access legitimate
                                    chords, guitar, bass, and drum tabs
                                    from Ultimate-Guitar.com database.

                                    Type "ultimate guitar tabs" in Apple
                                    App Store's or Android Market's
                                    search to find the application.
Intro
F#|-----------------------------------------------------------------|
C#|-----------------------------------------------------------------|
G#|-----------------------------------------------------------------|
C#|-0-0-3-0---0-3-0-6-6-5-3-5-3-3-0---0-3-0-3-0---0-6-6-5-3-5-3-3-0-|
    1 + 2 + 3 + 4 + 1 + 2 + 3 + 4 + 1 + 2 + 3 + 4 + 1 + 2 + 3 + 4 +

F#|-----------------------------------------------------------------|
C#|-----------------------------------------------------------------|
G#|-----------------------------------------------------------------|
C#|---0-3-0-3-0---0-6-6-5-3-5-3-3-0---0-3-0-3-0---0-6-6-5-3-5-3-3-0-|
    1 + 2 + 3 + 4 + 1 + 2 + 3 + 4 + 1 + 2 + 3 + 4 + 1 + 2 + 3 + 4 +

0:15 Verse
F#|-------------------------------------------------------------------|
C#|o-----------------------------------------------------------------o|
G#|o-----------------------------------------------------------------o|
C#|----0---0---0---0---0---0-3-0-5-0---0---0---0---0-6-6-5-3-5-3-3-0--|
     1 + 2 + 3 + 4 + 1 + 2 + 3 + 4 + 1 + 2 + 3 + 4 + 1 + 2 + 3 + 4 +

Pre Chorus 0:30
F#|-----------------------------------------------------------------|
C#|-----------------------------------------------------------------|
G#|-----------------------------------------------------------------|
C#|-0-0-0-0-0-0-0-0-2-2-2-2-2-2-2-2-3-3-3-3-3-3-3-3-5-5-5-5-5-5-5-5-|
    1 + 2 + 3 + 4 + 1 + 2 + 3 + 4 + 1 + 2 + 3 + 4 + 1 + 2 + 3 + 4 +

F#|-----------------------------------------------------------------|
C#|-----------------------------------------------------------------|
G#|-----------------------------------------------------------------|
C#|-0-0-0-0-0-0-0-0-2-2-2-2-2-2-2-2-3-3-3-3-3-3-3-3-5-r-------------|
    1 + 2 + 3 + 4 + 1 + 2 + 3 + 4 + 1 + 2 + 3 + 4 + 1 + 2 + 3 + 4 +

Chorus 0:45
F#|-----------------------------------------------------------------|
C#|-----------------------------------------------------------------|
G#|-----------------0-0-0-0-0-0-0-0-1-1-1-1-1-1-1-1-----------------|
C#|-0-0-0-0-0-0-0-0-----------------------------------5-5-5---3-3-3-|
    1 + 2 + 3 + 4 + 1 + 2 + 3 + 4 + 1 + 2 + 3 + 4 + 1 + 2 + 3 + 4 +

F#|-----------------------------------------------------------------|
C#|-----------------------------------------------------------------|
G#|-----------------0-0-0-0-0-0-0-0-1-1-1-1-1-1-1-1-----------------|
C#|-0-0-0-0-0-0-0-0-----------------------------------5-5-5---------|
    1 + 2 + 3 + 4 + 1 + 2 + 3 + 4 + 1 + 2 + 3 + 4 + 1 + 2 + 3 + 4 +

Interlude 1:00
F#|-----------------------------------------------------------------|
C#|-----------------------------------------------------------------|
G#|-----------------------------------------------------------------|
C#|-0-0-3-0---0-3-0-6-6-5-3-5-3-3-0---0-3-0-3-0---0-6-6-5-3-5-3-3-0-|
    1 + 2 + 3 + 4 + 1 + 2 + 3 + 4 + 1 + 2 + 3 + 4 + 1 + 2 + 3 + 4 +

Verse 1:09
F#|-------------------------------------------------------------------|
C#|o-----------------------------------------------------------------o|
G#|o-----------------------------------------------------------------o|
C#|----0---0---0---0---0---0-3-0-5-0---0---0---0---0-6-6-5-3-5-3-3-0--|
     1 + 2 + 3 + 4 + 1 + 2 + 3 + 4 + 1 + 2 + 3 + 4 + 1 + 2 + 3 + 4 +

Pre Chorus
1:24
F#|-----------------------------------------------------------------|
C#|-----------------------------------------------------------------|
G#|-----------------------------------------------------------------|
C#|-0-0-0-0-0-0-0-0-2-2-2-2-2-2-2-2-3-3-3-3-3-3-3-3-5-5-5-5-5-5-5-5-|
    1 + 2 + 3 + 4 + 1 + 2 + 3 + 4 + 1 + 2 + 3 + 4 + 1 + 2 + 3 + 4 +

F#|---------------------------------|
C#|---------------------------------|
G#|---------------------------------|
C#|-5-------------------------------|
    1 + 2 + 3 + 4 + 1 + 2 + 3 + 4 +

Chorus 1:34
F#|-----------------------------------------------------------------|
C#|-----------------------------------------------------------------|
G#|-----------------0-0-0-0-0-0-0-0-1-1-1-1-1-1-1-1-----------------|
C#|-0-0-0-0-0-0-0-0-----------------------------------5-5-5---3-3-3-|
    1 + 2 + 3 + 4 + 1 + 2 + 3 + 4 + 1 + 2 + 3 + 4 + 1 + 2 + 3 + 4 +

F#|-----------------------------------------------------------------|
C#|-----------------------------------------------------------------|
G#|-----------------0-0-0-0-0-0-0-0-1-1-1-1-1-1-1-1-----------------|
C#|-0-0-0-0-0-0-0-0-----------------------------------5-5-5---------|
    1 + 2 + 3 + 4 + 1 + 2 + 3 + 4 + 1 + 2 + 3 + 4 + 1 + 2 + 3 + 4 +

Solo 1:49
F#|-------------------------------------------------------------------|
C#|o-----------------------------------------------------------------o|
G#|o-----------------------------------------------------------------o|x3
C#|--0-0---0-3-2-0---0-2-0-2-3-2-0-2-0-0---0-3-2-0---0-5-0-3-0-2-3-5--|
     1 + 2 + 3 + 4 + 1 + 2 + 3 + 4 + 1 + 2 + 3 + 4 + 1 + 2 + 3 + 4 +

Pre Chorus 2:12
F#|-----------------------------------------------------------------|
C#|-----------------------------------------------------------------|
G#|-----------------------------------------------------------------|
C#|-0-0-0-0-0-0-0-0-2-2-2-2-2-2-2-2-3-3-3-3-3-3-3-3-5-5-5-5-5-5-5-5-|
    1 + 2 + 3 + 4 + 1 + 2 + 3 + 4 + 1 + 2 + 3 + 4 + 1 + 2 + 3 + 4 +

F#|-----------------------------------------------------------------|
C#|-----------------------------------------------------------------|
G#|-----------------------------------------------------------------|
C#|-0-0-0-0-0-0-0-0-2-2-2-2-2-2-2-2-3-3-3-3-3-3-3-3-5-b-------------|
    1 + 2 + 3 + 4 + 1 + 2 + 3 + 4 + 1 + 2 + 3 + 4 + 1 + 2 + 3 + 4 +

Chorus 2:28
F#|-------------------------------------------------------------------|
C#|o-----------------------------------------------------------------o|
G#|o-----------------0-0-0-0-0-0-0-0-1-1-1-1-1-1-1-1-----------------o|x3
C#|--0-0-0-0-0-0-0-0-----------------------------------5-5-5---3-3-3--|
     1 + 2 + 3 + 4 + 1 + 2 + 3 + 4 + 1 + 2 + 3 + 4 + 1 + 2 + 3 + 4 +

F#|-----------------------------------------------------------------|
C#|-----------------------------------------------------------------|
G#|-----------------0-0-0-0-0-0-0-0-1-1-1-1-1-1-1-1-----------------|
C#|-0-0-0-0-0-0-0-0-----------------------------------5-5-5---------|
    1 + 2 + 3 + 4 + 1 + 2 + 3 + 4 + 1 + 2 + 3 + 4 + 1 + 2 + 3 + 4 +

Outro 2:59
F#|-----------------------------------------------------------------|
C#|-----------------------------------------------------------------|
G#|-----------------------------------------------------------------|
C#|-0-0-3-0---0-3-0-6-6-5-3-5-3-3-0---0-3-0-3-0---0-6-6-5-3-5-3-3-0-|
    1 + 2 + 3 + 4 + 1 + 2 + 3 + 4 + 1 + 2 + 3 + 4 + 1 + 2 + 3 + 4 +

F#|-----------------------------------------------------------------|
C#|-----------------------------------------------------------------|
G#|-----------------------------------------------------------------|
C#|---0-3-0-3-0---0-6-6-5-3-5-3-3-0---0-3-0-3-0---0-6-6-5-3-5-3-3---|
    1 + 2 + 3 + 4 + 1 + 2 + 3 + 4 + 1 + 2 + 3 + 4 + 1 + 2 + 3 + 4 +
Tabbed by Dave Vucko

Intro
F#|-------------------------------------------------------------------|
C#|-------------------------------------------------------------------|
G#|-------------------------------------------------------------------|
C#|-0030-030-66535330-03030-066535330-03030-066535330-03030-066535330-|

Verse
0:15
|----------------------------------------|
|o--------------------------------------o|
|o--------------------------------------o|
|--0-0-0-0-0-0-03050-0-0-0-0-0-66535330--|

Pre Chorus
0:30
|-----------------------------------------------------------|
|-----------------------------------------------------------|
|-----------------------------------------------------------|
|-000000002222222233333333555555550000000022222222333333335-|

Chorus
0:46
|------------------------------------------------------------------|
|------------------------------------------------------------------|
|------------------------------------------------------------------|
|-000000007777777788888888-07p5-03p2-000000007777777788888888-07p5-|

Post Chorus
1:00
|-----------------------------------|
|-----------------------------------|
|-----------------------------------|
|-0030-030-66535330-03030-066535330-|

Verse
1:09
|----------------------------------------|
|o--------------------------------------o|
|o--------------------------------------o|
|--0-0-0-0-0-0-03050-0-0-0-0-0-66535330--|

Pre Chorus
1:24
|------------------------------------|
|------------------------------------|
|------------------------------------|
|-000000002222222233333333555555555~-|

Chorus
1:34
|------------------------------------------------------------------|
|------------------------------------------------------------------|
|------------------------------------------------------------------|
|-000000007777777788888888-07p5-03p2-000000007777777788888888-07p5-|

Breakdown/Solo
1:49
|--------------------------------------|
|o------------------------------------o|
|o------------------------------------o|x3
|--00-0320-00356535-00-0320-0656-2321--|

Pre Chorus
2:12
|------------------------------------------------------------|
|------------------------------------------------------------|
|------------------------------------------------------------|
|-000000002222222233333333555555550000000022222222333333335~-|

Chorus
2:28
|-----------------------------------------------------------------------|
|-----------------------------------------------------------------------|
|-----------------------------------------------------------------------|
|-000000007777777788888888-07p5-03p2-000000007777777788888888-07p5-03p2-|

|------------------------------------------------------------------|
|------------------------------------------------------------------|
|------------------------------------------------------------------|
|-000000007777777788888888-07p5-03p2-000000007777777788888888-07p5-|

Outro
2:59
|------------------------------------------------------------------|
|------------------------------------------------------------------|
|------------------------------------------------------------------|
|-0030-030-66535330-03030-066535330-03030-066535330-03030-06653533-|
Tabbed by Dave Vucko
comments
print report bad tab
I want to post or [tab]
guest
You may want to rate the tab now too:
select rating
Please do not post tabs as comments. Select "correction" instead!