Oops, an error
Loading. Please wait.

Knives And Pens Tab

ver2
ver2
More versions @911Tabs.com
22,071 views 35 this week
1 commentread comment
1 2 3 4 5
excellent!
x 7
Autoscroll
+/-
esc
set tempo
stop
Contributor
WARNING: You are trying to view
                                    content from Ultimate-Guitar.com
                                    in an unauthorized application,
                                    which is prohibited.

                                    Please use an official Ultimate
                                    Guitar Tabs application for iPhone,
                                    iPad or Android to access legitimate
                                    chords, guitar, bass, and drum tabs
                                    from Ultimate-Guitar.com database.

                                    Type "ultimate guitar tabs" in Apple
                                    App Store's or Android Market's
                                    search to find the application.
KNIVES AND PENS

BLACK VEIL BRIDES

TABBED BY : †VainNard05†

TUNING: DROPPED D

KUNG LOVE NYO PO UNG SONG NA TO  ADD NYO PO Q


DOUBLEKILL_TRIPLEKILL@YAHOO.COM O KAYA SA

ALIVE_DEATHNOTE05@YAHOOO.COM.


   PM PM   PM    PM   PM
E||----------------------------------------|
B||----------------------------------------|
G||----------------------------------------|
D||------------------------------7-5-----8-|
A||--------8----10----8----7h8-5-----8-7-8-|
D||--0--0----0-----0----0----------------8-|


    PM   PM    PM       PM PM    PM     T       T       T       T
E-----------------------------------------------------------------|
B-----------------------------------------------------------------|
G-----------------------------------------------------------------|
D------8---------------------14----10h-12p-10h-12p-10h-12p-10h-12-|
A-----------12----8-10--------------------------------------------|
D---8----8-----8-------10-10----10--------------------------------|


  PM PM   PM    PM   PM
E----------------------------------------|
B----------------------------------------|
G----------------------------------------|
D------------------------------7-5-----8-|
A--------8----10----8----8-7-5-----8-7-8-|
D--0--0----0-----0----0----------------8-|


    PM   PM    PM       PM PM

E----------------------------------------------|
B----------------------------------------------|
G----------------------------------------------|
D------8---------------------15-14-12----------|
A-----------12----8-10----------------13-12----|
D---8----8-----8-------10-10----------------12-|

3X PO 2


  PM PM   PM    PM   PM                      PM
E----------------------------------------|--------------------------------|
B----------------------------------------|--------------------------------|
G----------------------------------------|--------------------------------|
D------------------------------7-5-----8-|--L----8------------------------|
A--------8----10----8----8-7-5-----8-7-8-|--L--------12-10-8-10--L--------|
D--0--0----0-----0----0----------------8-|--L-8---------------------------|

E2 UNG FINAL NG INTRO

VERSE 1
E------------------|----------------------|-------------------|
B------------------|----------------------|-------------------|
G------------------|----------------------|-------------------|
D--0---------------|--10--------10--------|--0----------------|
A--0---------------|---7---------8--------|--0----------------|
D--0---------------|---7---------8--------|--0----------------|


                               PM PM PM PM        PM PM PM PM PM
E---------------------|------------------------------------------|
B---------------------|------------------------------------------|
G---------------------|------------------------------------------|
D--10--------10-------|--0--0--------------0---0-----------------|
A---7---------8-------|--0--0--0--0--0--0--0---0--0--0--0--0--0--|
D---7---------8-------|--0--0--0--0--0--0--0---0--0--0--0--0--0--|


E----------------------------------------|
B----------------------------------------|
G----------------------------------------|
D--10--10--10-10-10-10---10--10-10-10-10-|
A---7---7---7--7--7--8----8---8--8--8--8-|
D---7---7---7--7--7--8----8---8--8--8--8-|


        PM PM PM PM        PM PM PM PM PM
E-----------------------------------------|
B-----------------------------------------|
G-----------------------------------------|
D-0--0--------------0---0-----------------|
A-0--0--0--0--0--0--0---0--0--0--0--0--0--|
D-0--0--0--0--0--0--0---0--0--0--0--0--0--|


E------------------------------------------|
B------------------------------------------|
G------------------------------------------|
A--10--10--10-10-10-10---10--10-10-10-10---|
D---7---7---7--7--7--8----8---8--8--8--8---|
---7---7---7--7--7--8----8---8--8--8--8----|


   E   S  S  S  S  S  S  S  S  S  S  S  S  E
E------17-20-17----------------------------------|
G--18-----------18-------------------------------|
D------------------17----------------------------|
A---------------------19-17-19-17----17----------|
D---------------------------------20----20--L----|
-------------------------------------------------|


   E   S  S  S  S  S  S  S  S  S  S  S  S  E
E------17-18-17--------------------------------|
B--18-----------18-----------------------------|
G------------------17--------------------------|
D---------------------19-17-19-17----17--------|
A---------------------------------20----20--L--|
D----------------------------------------------|


                                        W
   E   S  S  S  S  S  S  S  S  S  S  S  S  E
E--20--17--------------------------------------|
B---------18-----------------------------------|
G------------17----17--------------------------|
D---------------20----20-19-20-19-17-19-17--L--|
A----------------------------------------------|
D----------------------------------------------|


CHORUS

E------------------------------------------|
B------------------------------------------|
G------------------------------------------|
D------------------------------------------|
A----8-8-10-8-12-8-10-8-8-8-10-8-12-8-10-8-|
D------------------------------------------|
             WHAT FINAL. . . . . . . . . . .
E------------------------------------------|
B------------------------------------------|
G------------------------------------------|
D------------------------------------------|
A----8-8-10-8-12-8-10-8-8-8-10-8-12-8-10-8-|
D------------------------------------------|


  PM PM    PM PM    PM PM    PM PM    PM PM
E--------------------------------------------------|
B--------------------------------------------------|
G--------------------------------------------------|
D--------------------------------------------------|
A--------15-------12-------13-------12-------12-10-|
D--0--0-----0--0-----0--0-----0--0-----0--0--------|

  PM PM    PM PM    PM PM    PM PM    PM PM
E--------------------------------------------------|
B--------------------------------------------------|
G--------------------------------------------------|
D--------------------------------------------------|
A--------15-------12-------13-------12-------12-13-|
D--0--0-----0--0-----0--0-----0--0-----0--0--------|


E------------------------------------------|
B------------------------------------------|
G------------------------------------------|
D------------------------------------------|
A----8-8-10-8-12-8-10-8-8-8-10-8-12-8-10-8-|
D------------------------------------------|

E-------------------------------------------|
B-------------------------------------------|
G-------------------------------------------|
D-------------------------------------------|
A-----8-8-10-8-12-8-10-8-8-8-10-8-12-8-10-8-|
D-------------------------------------------|

  PM PM    PM PM    PM PM    PM PM    PM PM
E--------------------------------------------------|
B--------------------------------------------------|
G--------------------------------------------------|
D--------------------------------------------------|
A--------15-------12-------13-------12-------12-10-|
D--0--0-----0--0-----0--0-----0--0-----0--0--------|


  PM PM    PM PM    PM PM    PM PM    PM PM
  S  S   S S  S   S S  S   S S  S   S S  S   S  S    E  E  S S S S E  E  E  E
E--------------------------------------------------|----------------------------|
B--------------------------------------------------|----------------------------|
G--------------------------------------------------|----------------------------|
D--------------------------------------------------|--0--0--x-0-x-0-------------|
A--------15-------12-------13-------12-------12-13-|--0--0--x-0-x-0-------------|
D--0--0-----0--0-----0--0-----0--0-----0--0--------|--0--0--x-0-x-0-------------|

ULITIN LANG PO UNG VERSE
THEN CHORUS 1

CHORUS 2

E------------------------------------------|
B------------------------------------------|
G----8-8-10-8-12-8-10-8-8-8-10-8-12-8-10-8-|
D------------------------------------------|
A------------------------------------------|
D------------------------------------------|

E------------------------------------------|
B------------------------------------------|
G----8-8-10-8-12-8-10-8-8-8-10-8-12-8-10-8-|
D------------------------------------------|
A------------------------------------------|
D------------------------------------------|

  PM PM    PM PM    PM PM    PM PM    PM PM
E--------------------------------------------------|
B--------------------------------------------------|
G--------------------------------------------------|
D--------------------------------------------------|
A--------15-------12-------13-------12-------12-10-|
D--0--0-----0--0-----0--0-----0--0-----0--0--------|


  PM PM    PM PM    PM PM    PM PM    PM PM
E--------------------------------------------------|
B--------------------------------------------------|
G--------------------------------------------------|
D--------------------------------------------------|
A--------15-------12-------13-------12-------12-13-|
D--0--0-----0--0-----0--0-----0--0-----0--0--------|

E------------------------------------------|
B------------------------------------------|
G----8-8-10-8-12-8-10-8-8-8-10-8-12-8-10-8-|
D------------------------------------------|
A------------------------------------------|
D------------------------------------------|

E------------------------------------------|
B------------------------------------------|
G----8-8-10-8-12-8-10-8-8-8-10-8-12-8-10-8-|
D------------------------------------------|
A------------------------------------------|
D------------------------------------------|


  PM PM    PM PM    PM PM    PM PM    PM PM
  S  S   S S  S   S S  S   S S  S   S S  S   S  S
E--------------------------------------------------|
B--------------------------------------------------|
D--------------------------------------------------|
G--------------------------------------------------|
A--------15-------12-------13-------12-------12-10-|
D--0--0-----0--0-----0--0-----0--0-----0--0--------|


  PM PM    PM PM    PM PM    PM PM    PM PM
  S  S   S S  S   S S  S   S S  S   S S  S   S  S    W
E--------------------------------------------------|-------------------|
B--------------------------------------------------|-------------------|
G--------------------------------------------------|-------------------|
D--------------------------------------------------|--0----------------|
A--------15-------12-------13-------12-------12-13-|--0----------------|
D--0--0-----0--0-----0--0-----0--0-----0--0--------|--0----------------|

GUITAR SOLO?
                          PM      PM PM
E-------------------|----------------------------|
B-------------------|----------------------------|
G-------------------|----------------------------|
D--0----------------|--0------0------------------|
A--0----------------|--0---0--0----0--0----------|
D--0----------------|--0---0--0----0--0----------|


     PM PM PM PM PM PM    PM PM PM PM            PM      PM PM      NH
E------------------------------------------|-------------------------------|
B------------------------------------------|-------------------------------|
G------------------------------------------|-------------------------------|
D------------------------------------------|--0------0---------------------|
A-----0--0--0--0--0--0-----0--0--0--0------|--0---0--0----0--0-------------|
D-----0--0--0--0--0--0-----0--0--0--0------|--0---0--0----0--0-----<>5~----|


     PM PM PM PM PM PM    PM PM PM PM            PM      PM PM
E------------------------------------------|----------------------------|
B------------------------------------------|----------------------------|
G------------------------------------------|----------------------------|
D------------------------------------------|--0------0------------------|
A-----0--0--0--0--0--0-----0--0--0--0------|--0---0--0----0--0----------|
E--L--0--0--0--0--0--0-----0--0--0--0------|--0---0--0----0--0----------|

E--------------------------------------------------------|
B--------------------------------------------------------|
G---10-13-12-10-13-12-10-13-12-10-13-12-10-13-12-10-12---|
D--------------------------------------------------------|
A--------------------------------------------------------|
D--------------------------------------------------------|


E-------------------------------------------------------|
B-------------------------------------------------------|
G----12-15-14-12-15-14-12-15-14-12-15-14-12-15-14-12-14-|
D-------------------------------------------------------|
A-------------------------------------------------------|
D-------------------------------------------------------|


E-------------------------------------------------------------|
B-------------------------------------------------------------|
G----14-17-16-14-17-16-14-17-16-14-17-16-14-17-16-14-16-------|
D-------------------------------------------------------------|
A-------------------------------------------------------------|
D-------------------------------------------------------------|

E-------------------------------------------------------------|
B-------------------------------------------------------------|
G----16-19-17-16-19-17-16-19-17-16-19-17-16-19-17-16-17-------|
D-------------------------------------------------------------|
A-------------------------------------------------------------|
D-------------------------------------------------------------|

   E   S  S  S  S  S  S  S  S  S  S  S  S  E
E------17-20-17--------------------------------|
B--18-----------18-----------------------------|
G------------------17--------------------------|
D---------------------19-17-19-17----17--------|
A---------------------------------20----20--L--|
D----------------------------------------------|


   E   S  S  S  S  S  S  S  S  S  S  S  S  E
E------17-18-17--------------------------------|
B--18-----------18-----------------------------|
G------------------17--------------------------|
D---------------------19-17-19-17----17--------|
A---------------------------------20----20--L--|
D----------------------------------------------|


E--20--17--------------------------------------|
B---------18-----------------------------------|
G------------17----17--------------------------|
D---------------20----20-19-20-19-17-19-17--L--|
A----------------------------------------------|
D----------------------------------------------|


THEN CHORUS 1 AND CHORUS 2

      PM      PM PM      PH          PM PM PM PM PM PM    PM PM PM PM
E-------------------------------|------------------------------------------|
B-------------------------------|------------------------------------------|
G-------------------------------|------------------------------------------|
D--0------0---------------------|------------------------------------------|
A--0---0--0----0--0-------------|-----0--0--0--0--0--0-----0--0--0--0------|
D--0---0--0----0--0-----<>5~----|--L--0--0--0--0--0--0-----0--0--0--0------|


      PM      PM PM      PH          PM PM PM PM PM PM    PM PM      PM PM
E-------------------------------|-------------------------------------------||
B-------------------------------|-------------------------------------------||
G-------------------------------|-------------------------------------------||
D--0------0---------------------|-------------------------------------------||
A--0---0--0----0--0-------------|-----0--0--0--0--0--0-----0--0--0----0--0--||
D--0---0--0----0--0-----<>7~----|--L--0--0--0--0--0--0-----0--0--0----0--0--||

YAN PO SANA MY TAMA NAMAN KAHIT KONTI HEHEHE!

COMMENT NALANG PO KAYO KUNG MAY MALI ^^

PAKI RATE NALANG PO ^^ KUNG NNAGUSTUHAN NYO!!


BINABATI KO NGA PALA SILA BINO MINOR SANDREX DE CHAVES MEL CASTILLO JOMEL CRUZ AT SI WILLY!!!
1 comment total.
0 reply
iHeartSkyyyy wrote on December 9 2012, 03:45 am

Aw pinoy. Gwapo. HAHAHA

I want to post or [tab]
guest
You may want to rate the tab now too:
select rating
Please do not post tabs as comments. Select "correction" instead!