Oops, an error
Loading. Please wait.

Knives And Pens Tab

ver5
ver5
More versions @911Tabs.com
7,815 views 102 this week
4 commentsread comments
1 2 3 4 5
excellent!
x 6
Autoscroll
+/-
esc
set tempo
stop
Contributor
Difficulty
Tuning
intermediate
D A D G B E
WARNING: You are trying to view
                                    content from Ultimate-Guitar.com
                                    in an unauthorized application,
                                    which is prohibited.

                                    Please use an official Ultimate
                                    Guitar Tabs application for iPhone,
                                    iPad or Android to access legitimate
                                    chords, guitar, bass, and drum tabs
                                    from Ultimate-Guitar.com database.

                                    Type "ultimate guitar tabs" in Apple
                                    App Store's or Android Market's
                                    search to find the application.
Song: "Knives and Pens"
Band/Artist: Black Veil Brides
Álbum: We Stich These Wounds (2010)



- Intro
  
E||----------------------------------------|
B||----------------------------------------|
G||----------------------------------------|
D||------------------------------7-5-----8-|
A||--------8----10----8----7h8-5-----8-7-8-|
D||--0--0----0-----0----0----------------8-|
     .  .    .     .    .

E| |------------------------------------------------------------|
B| |------------------------------------------------------------|
G| |------------------------------------------------------------|
D| |-------8---------------------14----10h12p10h12p10h12p10h12--|
A| |------------12----8-10--------------------------------------|
D| |--8--8---8-----8-------10--10-------------------------------|
      .  .   .     .        .   .
   
E||----------------------------------------|
B||----------------------------------------|
G||----------------------------------------|
D||------------------------------7-5-----8-|
A||--------8----10----8----7h8-5-----8-7-8-|
D||--0--0----0-----0----0----------------8-|
     .  .    .     .    .

E| |-----------------------------------------------|
B| |-----------------------------------------------|
G| |-----------------------------------------------|
D| |-------8---------------------15-14-12----------|
A| |------------12----8-10----------------13-12----|
D| |----8----8-----8-------10-10----------------12-|
        .    .     .        .  .

' Repeat all this part (x2),
After, in place of this latter part ...

E| |--------------------------------------------------|
B| |--------------------------------------------------|
G| |--------------------------------------------------|         
D| |---------8----------------------------------------|
A| |-------------12-10-8-10~--------------------------|
D| |---8--8-------------------------------------------|
       .  .

- Verse 1             
E| |---------------------------------------------------|
B| |---------------------------------------------------|
G| |---------------------------------------------------|
D| |--0~------------------10~--------10~---------------|
A| |--0~-------------------7~---------8~---------------|
D| |--0~-------------------7~---------8~---------------|

' Repeat (x2), after this part (x2 too)

E| |-------------------------------------------------------|
B| |-------------------------------------------------------|
G| |-------------------------------------------------------|
D| |--0--0--------------0---0------------------10~------10~|
A| |--0--0--0--0--0--0--0---0--0--0--0--0--0---7~--------8~|
D| |--0--0--0--0--0--0--0---0--0--0--0--0--0---7~--------8~|
            .  .  .  .         .  .  .  .  .

- Pré-chorus
  
E| |---------------------12-15-12----12----------------|
B| |--------------13-15-----------15-----15-----13~----|
G| |----------12-----------------------------14--------|
D| |-------14------------------------------------------|
A| |---15----------------------------------------------|
D| |---------------------------------------------------|

E| |----15-------------------------12------------------|
B| |--------13--------------12-13-----13---------------|
G| |-----------14------------------------12------------|
D| |--------------15-14-15------------------14---------|
A| |-------------------------------------------15~-----|
D| |---------------------------------------------------|

E| |----/17-12----------------12-15-12-----------------|
B| |------------13----------13---------15-13-15b-------­|
G| |---------------12----12----------------------------|
D| |------------------15-------------------------------|
A| |---------------------------------------------------|
D| |---------------------------------------------------|

- Chorus 1 (x2)
 
E| |------------------------------------------|
B| |------------------------------------------|
G| |------------------------------------------|
D| |------------------------------------------|
A| |-----8-10-8-12-8----8----8-10-8-12-8----8-|
D| |--12-------------12---12-------------12---|


E| |-----------------------------------------------|
B| |-----------------------------------------------|
G| |-----------------------------------------------|
D| |-----------------------------------------------|
A| |-----8-10-8-12-8----8--10h12p10-8-7-8h10p8-7-5-|
D| |--12-------------12----------------------------|


E| |--------------------------------------------------|
B| |--------------------------------------------------|
G| |--------------------------------------------------|
D| |--------------------------------------------------|
A| |--------15-------12-------13-------12-------12-10-|
D| |--0--0-----0--0-----0--0-----0--0-----0--0--------|
      .  .     .  .     .  .     .  .     .  .

E| |--------------------------------------------------|
B| |--------------------------------------------------|
G| |--------------------------------------------------|
D| |--------------------------------------------------|
A| |--------15-------12-------13-------12-------12-13-|
D| |--0--0-----0--0-----0--0-----0--0-----0--0--------|
      .  .     .  .     .  .     .  .     .  .

- Ends the "Chorus 1" with:

E| |------------------------------------------|
B| |------------------------------------------|
G| |------------------------------------------|
D| |--0--0--x--0--0--x------------------------|
A| |--0--0--x--0--0--x------------------------|
D| |--0--0--x--0--0--x------------------------|


- Verse 2             

E| |---------------------------------------------------|
B| |---------------------------------------------------|
G| |---------------------------------------------------|
D| |--0~------------------10~--------10~---------------|
A| |--0~-------------------7~---------8~---------------|
D| |--0~-------------------7~---------8~---------------|

' Repeat (x2), after this part (x2 too) ...

E| |-------------------------------------------------------|
B| |-------------------------------------------------------|
G| |-------------------------------------------------------|
D| |--0--0--------------0---0------------------10~------10~|
A| |--0--0--0--0--0--0--0---0--0--0--0--0--0---7~--------8~|
D| |--0--0--0--0--0--0--0---0--0--0--0--0--0---7~--------8~|
            .  .  .  .         .  .  .  .  .

- Pré-chorus
  
E| |---------------------12-15-12----12----------------|
B| |--------------13-15-----------15-----15-----13~----|
G| |----------12-----------------------------14--------|
D| |-------14------------------------------------------|
A| |---15----------------------------------------------|
D| |---------------------------------------------------|

E| |----15-------------------------12------------------|
B| |--------13--------------12-13-----13---------------|
G| |-----------14------------------------12------------|
D| |--------------15-14-15------------------14---------|
A| |-------------------------------------------15~-----|
D| |---------------------------------------------------|

E| |----/17-12----------------12-15-12-----------------|
B| |------------13----------13---------15-13-15b-------­|
G| |---------------12----12----------------------------|
D| |------------------15-------------------------------|
A| |---------------------------------------------------|
D| |---------------------------------------------------|

- Chorus 2
 
E| |------------------------------------------|
B| |------------------------------------------|
G| |------------------------------------------|
D| |------------------------------------------|
A| |-----8-10-8-12-8----8----8-10-8-12-8----8-|
D| |--12-------------12---12-------------12---|


E| |-----------------------------------------------|
B| |-----------------------------------------------|
G| |-----------------------------------------------|
D| |-----------------------------------------------|
A| |-----8-10-8-12-8----8--10h12p10-8-7-8h10p8-7-5-|
D| |--12-------------12----------------------------|


E| |--------------------------------------------------|
B| |--------------------------------------------------|
G| |--------------------------------------------------|
D| |--------------------------------------------------|
A| |--------15-------12-------13-------12-------12-10-|
D| |--0--0-----0--0-----0--0-----0--0-----0--0--------|
      .  .     .  .     .  .     .  .     .  .

E| |--------------------------------------------------|
B| |--------------------------------------------------|
G| |--------------------------------------------------|
D| |--------------------------------------------------|
A| |--------15-------12-------13-------12-------12-13-|
D| |--0--0-----0--0-----0--0-----0--0-----0--0--------|
      .  .     .  .     .  .     .  .     .  .

' Repeat this part (x2) ...
After ...

E| |--------------------------------------------------|
B| |--------------------------------------------------|
G| |-----10-12-10-14-10----10----10-12-10-14-10----10-|
D| |--12----------------12----12----------------12----|
A| |--------------------------------------------------|
D| |--------------------------------------------------|


E| |------------------------------------------------------|
B| |------------------------------------------------------|
G| |-----10-12-10-14-10----10--12h14p12-10-9-10h12p10-9-7-|
D| |--12----------------12--------------------------------|
A| |------------------------------------------------------|
D| |------------------------------------------------------|

E| |--------------------------------------------------|
B| |--------------------------------------------------|
G| |--------------------------------------------------|
D| |--------------------------------------------------|
A| |--------15-------12-------13-------12-------12-10-|
D| |--0--0-----0--0-----0--0-----0--0-----0--0--------|
      .  .     .  .     .  .     .  .     .  .

E| |--------------------------------------------------|
B| |--------------------------------------------------|
G| |--------------------------------------------------|
D| |--------------------------------------------------|
A| |--------15-------12-------13-------12-------12-13-|
D| |--0--0-----0--0-----0--0-----0--0-----0--0--------|
      .  .     .  .     .  .     .  .     .  .

-  Ends the "Chorus 2" with:

E| |--------------------------------------------------|
B| |--------------------------------------------------|
G| |--------------------------------------------------|
D| |--0~----------------------------------------------|
A| |--0~----------------------------------------------|
D| |--0~----------------------------------------------|
      
- Pré-solo

E| |--------------------------------------------------|
B| |--------------------------------------------------|
G| |--------------------------------------------------|
D| |--0~-0--0~-0-0------------------------------------|
A| |--0~-0--0~-0-0-----0-0-0-0-0-0-0--0--0-0--0-0-----|
D| |--0~-0--0~-0-0-----0-0-0-0-0-0-0--0--0-0--0-0-----|
         .     . .     . . . . . . .  .  . .  . .
E| |--------------------------------------------------|
B| |--------------------------------------------------|
G| |--------------------------------------------------|
D| |--0~-0--0~-0-0------------------------------------|
A| |--0~-0--0~-0-0------0-0-0-0-0-0-0--0--0-0--0-0----|
D| |--0~-0--0~-0-0---5~-0-0-0-0-0-0-0--0--0-0--0-0----|
         .     . .   NH . . . . . . .  .  . .  . .

- Solo 1

E| |------------------------------------------------|
B| |------------------------------------------------|
G| |--10-14-12-10-14-12-10-14-12-10-14-12-10-14-12--|
D| |------------------------------------------------|
A| |------------------------------------------------|
D| |------------------------------------------------|

E| |------------------------------------------------|
B| |------------------------------------------------|
G| |--12-15-14-12-15-14-12-15-14-12-15-14-12-15-14--|
D| |------------------------------------------------|
A| |------------------------------------------------|
D| |------------------------------------------------|

E| |------------------------------------------------|
B| |------------------------------------------------|
G| |--14-17-15-14-17-15-14-17-15-14-17-15-14-17-15--|
D| |------------------------------------------------|
A| |------------------------------------------------|
D| |------------------------------------------------|

E| |------------------------------------------------|
B| |------------------------------------------------|
G| |--15-19-17-15-19-17-15-19-17-15-19-17-15-19-17--|
D| |------------------------------------------------|
A| |------------------------------------------------|
D| |------------------------------------------------|

- Solo 2

E| |--13p10----10----------------------------------------|
B| |--------13-----13p10--13p10-----10-----------10------|
G| |-----------------------------12----12p10-----12b-----|
D| |-----------------------------------------------------|
A| |-----------------------------------------------------|
D| |-----------------------------------------------------|

E| |-------------------------------------------10tp-/13b--13b----|
B| |-------------------------------------------------------------|
G| |------------10----10h12-10h13-10h12----10~-------------------|
D| |--12h10--12----12-------------------12-----------------------|
A| |-------------------------------------------------------------|
D| |-------------------------------------------------------------|

E| |--15p13--15p13------------------------------------|
B| |----------------15-13-12--------------------------|
G| |-------------------------14-12-14-12--------------|
D| |-------------------------------------14-12-10-12~-|
A| |--------------------------------------------------|
D| |--------------------------------------------------|

E| |---------14h15-17-15-14-----------------12h13-15-13-12---------|
B| |-------15--------------17-15-14-------13--------------15-13-12-|
G| |-----14-----------------------------12-------------------------|
D| |---15-----------------------------13---------------------------|
A| |-17-----------------------------15-----------------------------|
D| |---------------------------------------------------------------|

E| |----------10h11-13-11-10-----------------7h8-10-8-7-------|
B| |--------11---------------13-11-10------8-----------1­0-8-7-|
G| |------10-----------------------------7--------------------|
D| |----11-----------------------------8----------------------|
A| |--13-----------------------------10-----------------------|
D| |----------------------------------------------------------|


E| |--20-19-17------------18-17-15------------17-15-14-----------------|
B| |------------20-19-17------------18-17-15------------17-15-14-18b---|
G| |-------------------------------------------------------------------|
D| |-------------------------------------------------------------------|
A| |-------------------------------------------------------------------|
D| |-------------------------------------------------------------------|

- Repeat the "Chorus 2", after ...

E| |--------------------------------------------------|
B| |--------------------------------------------------|
G| |--------------------------------------------------|
D| |--0~-0--0~-0-0------------------------------------|
A| |--0~-0--0~-0-0------0-0-0-0-0-0-0--0--0-0--0-0----|
D| |--0~-0--0~-0-0---5~-0-0-0-0-0-0-0--0--0-0--0-0----|
         .     . .   NH . . . . . . .  .  . .  . .

E| |--------------------------------------------------|
B| |--------------------------------------------------|
G| |--------------------------------------------------|
D| |--0~-0--0~-0-0------------------------------------|
A| |--0~-0--0~-0-0------0-0-0-0-0-0-0--0--0-0--0-0----|
D| |--0~-0--0~-0-0---7~-0-0-0-0-0-0-0--0--0-0--0-0----|
         .     . .   NH . . . . . . .  .  . .  . .

- End of song. 




Legend:
b = bend
h = hammer
p = pull
. = palm mute
NH = natural harmonic
/ = slide on
tp = tremolo pick


Add me on Facebook: http://facebook.com/KevinGatesa7x
Follow me on Twitter: http://twitter.com/WindowsKevin_

Thank you for viewing this tab. Evaluate it. (:
4 comments total. Showing first comments.
+1 reply
ThePowerFuse wrote on July 23 2012, 08:09 pm

First most accurate tab so far!
Some of the others are pretty close but damn easy to tell they're wrong, thankyou :)

0 reply
Ryandese wrote on August 28 2012, 06:56 am

I play the intro like this
I noticed the lack of the note in the beginning, so here's how I play it.

<0*> Pinched Harmonic while slowly swelling volume knob up.
* Pinched Harmonic
Intro
e|--------------------------------------------------------|
g|--------------------------------------------------------|
b|--------------------------------------------------------|
d|-----------------------------------------------7-5-----8|
a|--------------------------8---10---8---8p7h8-5-----8-7-8|
D|----<0*>--------------0-0---0----0---0-----------------8|

e|----------------------------------------------------------
g|----------------------------------------------------------
b|----------------------------------------------------------
d|-------8-----12-------------------------------------------
a|---------------------8-10-------1410h12p10h12p10h12p10h12|
D|--8-8----8---------8-------12-----------------------------

e|--------------------------------------------------------|
g|--------------------------------------------------------|
b|--------------------------------------------------------|
d|-----------------------------------------------7-5-----8|
a|--------------------------8---10---8---8p7h8-5-----8-7-8|
D|----------------------0-0---0----0---0-----------------8|

e|----------------------------------------------------------
g|----------------------------------------------------------
b|----------------------------------------------------------
d|-------8-----12-----------------15-14-12------------------
a|---------------------8-10----------------14-12------------
D|--8-8----8---------8-------12-------------------12--------

+1 reply
Ryandese wrote on August 28 2012, 06:57 am

Great tab though.

I want to post or [tab]
guest
You may want to rate the tab now too:
select rating
Please do not post tabs as comments. Select "correction" instead!