Oops, an error
Loading. Please wait.

New Religion Bass Tab

620 views 1 this week
no commentswrite comment
1 2 3 4 5
excellent!
x 3
Autoscroll
+/-
esc
set tempo
stop
Contributor
Difficulty
Tuning
advanced
C# G# C# F# A# D#
WARNING: You are trying to view
                                    content from Ultimate-Guitar.com
                                    in an unauthorized application,
                                    which is prohibited.

                                    Please use an official Ultimate
                                    Guitar Tabs application for iPhone,
                                    iPad or Android to access legitimate
                                    chords, guitar, bass, and drum tabs
                                    from Ultimate-Guitar.com database.

                                    Type "ultimate guitar tabs" in Apple
                                    App Store's or Android Market's
                                    search to find the application.
F#|-----------------------------------------------------------------|
C#|-----------------------------------------------------------------|
G#|-----------------------------------------------------------------|
C#|-0-------------------------------0---------------0-3-5-6-5-3-0-3-|
    1 + 2 + 3 + 4 + 1 + 2 + 3 + 4 + 1 + 2 + 3 + 4 + 1 + 2 + 3 + 4 +

F#|-----------------------------------------------------------------|
C#|-----------------------------------------------------------------|
G#|-----------------------------------------------------------------|
C#|-0---------------------------------------------------------------|
    1 + 2 + 3 + 4 + 1 + 2 + 3 + 4 + 1 + 2 + 3 + 4 + 1 + 2 + 3 + 4 +

0:08 Verse
F#|-----------------------------------------------------------------------|
C#|o----------------------------8-7-5-------------------------------------|
G#|o----------------------------------8-----------------------------------|
C#|--0-0-0-0-12-0-10-0-12-0-0-0---------0-0-0-0-12-0-10-0-0-3-5-6-5-3-0-3-|
     1 + 2 + 3  + 4  + 1  + 2 + 3 + 4 + 1 + 2 + 3  + 4  + 1 + 2 + 3 + 4 +

F#|------------------------------------------6-7-6---6------------------|
C#|----------------------------8-7-5---5-7-8-------8-------------------o|
G#|----------------------------------8---------------------------------o|
C#|-0-0-0-0-12-0-10-0-12-0-0-0-------------------------0-0-0-0-0-0-0-0--|
    1 + 2 + 3  + 4  + 1  + 2 + 3 + 4 + 1 + 2 + 3 + 4 + 1 + 2 + 3 + 4 +

0:26 Pre Chorus
F#|-----------------------------------------------------------------|
C#|-----------------------------------------------------------------|
G#|-----------------3-----------------------------0-----------------|
C#|-0-0-0-0-0-0---0---6-5-3-3-5-6-3---3-5-3-6-5-3-----6-5-3-3-5-3-0-|
    1 + 2 + 3 + 4 + 1 + 2 + 3 + 4 + 1 + 2 + 3 + 4 + 1 + 2 + 3 + 4 +

F#|-----------------------------------------------------------------|
C#|-----------------------------------------------6---5-3-0---------|
G#|-----------------3-----------------------------------------------|
C#|---0-0-0-0-0---0---6-5-3-3-5-6-3---3-5-3-6-5-3-----------3-5-6-0-|
    1 + 2 + 3 + 4 + 1 + 2 + 3 + 4 + 1 + 2 + 3 + 4 + 1 + 2 + 3 + 4 +

F#|-----------------------------------------------------------------|
C#|-----------------------------------------------------------------|
G#|-----------------3-----------------------------0-----------------|
C#|---0-0-0-0-0---0---6-5-3-3-5-6-3---3-5-3-6-5-3-----6-5-3-3-5-3-0-|
    1 + 2 + 3 + 4 + 1 + 2 + 3 + 4 + 1 + 2 + 3 + 4 + 1 + 2 + 3 + 4 +

F#|-----------------------------------------------------------------|
C#|-----------------------------------------------6---5-3-0---------|
G#|-----------------3-----------------------------------------------|
C#|---0-0-0-0-0---0---6-5-3-3-5-6-3---3-5-3-6-5-3-----------3-5-6-0-|
    1 + 2 + 3 + 4 + 1 + 2 + 3 + 4 + 1 + 2 + 3 + 4 + 1 + 2 + 3 + 4 +

F#|---------------------------------|
C#|---------------------------------|
G#|---------------------------------|
C#|-7---7---7---7---7---7---7---7---|
    1 + 2 + 3 + 4 + 1 + 2 + 3 + 4 + 

0:47 Chorus
F#|------------------------------------------------------------------|
C#|o-----------------------------------------------------------------|
G#|o-------------------------7-7-7-7-1-1-1-1-1-1-1-1-1-1-1-1-1-3-1-0-|
C#|--0-0-0-0-0-0-0-0-0-0-0-0-----------------------------------------|
     1 + 2 + 3 + 4 + 1 + 2 + 3 + 4 + 1 + 2 + 3 + 4 + 1 + 2 + 3 + 4 +

F#|------------------------------------------------------------------|
C#|-----------------------------------------------------------------o|
G#|-----------------------------------------------------0-1---------o|
C#|-5-5-5-5-5-5-5-5-5-5-5-5-5-5-5-5-3-3-3-3-3-3-3-3-3-5-----3-5-3-2--|
    1 + 2 + 3 + 4 + 1 + 2 + 3 + 4 + 1 + 2 + 3 + 4 + 1 + 2 + 3 + 4 +

1:07 Verse
F#|-----------------------------------------------------------------------|
C#|o----------------------------8-7-5-------------------------------------|
G#|o----------------------------------8-----------------------------------|
C#|--0-0-0-0-12-0-10-0-12-0-0-0---------0-0-0-0-12-0-10-0-0-3-5-6-5-3-0-3-|
     1 + 2 + 3  + 4  + 1  + 2 + 3 + 4 + 1 + 2 + 3  + 4  + 1 + 2 + 3 + 4 +

F#|------------------------------------------6-7-6---6------------------|
C#|----------------------------8-7-5---5-7-8-------8-------------------o|
G#|----------------------------------8---------------------------------o|
C#|-0-0-0-0-12-0-10-0-12-0-0-0-------------------------0-0-0-0-0-0-0-0--|
    1 + 2 + 3  + 4  + 1  + 2 + 3 + 4 + 1 + 2 + 3 + 4 + 1 + 2 + 3 + 4 +

1:25 Pre Chorus
F#|-----------------------------------------------------------------|
C#|-----------------------------------------------------------------|
G#|-----------------3-----------------------------0-----------------|
C#|-0-----------------6-5-3-3-5-6-3---3-5-3-6-5-3-----6-5-3-3-5-3-0-|
    1 + 2 + 3 + 4 + 1 + 2 + 3 + 4 + 1 + 2 + 3 + 4 + 1 + 2 + 3 + 4 +

F#|-----------------------------------------------------------------|
C#|-----------------------------------------------6---5-3-0---------|
G#|-----------------3-----------------------------------------------|
C#|---0-0-0-0-0---0---6-5-3-3-5-6-3---3-5-3-6-5-3-----------3-5-6-0-|
    1 + 2 + 3 + 4 + 1 + 2 + 3 + 4 + 1 + 2 + 3 + 4 + 1 + 2 + 3 + 4 +

F#|-----------------------------------------------------------------|
C#|-----------------------------------------------------------------|
G#|-----------------3-----------------------------0-----------------|
C#|---0-0-0-0-0---0---6-5-3-3-5-6-3---3-5-3-6-5-3-----6-5-3-3-5-3-0-|
    1 + 2 + 3 + 4 + 1 + 2 + 3 + 4 + 1 + 2 + 3 + 4 + 1 + 2 + 3 + 4 +

F#|-----------------------------------------------------------------|
C#|-----------------------------------------------6---5-3-0---------|
G#|-----------------3-----------------------------------------------|
C#|---0-0-0-0-0---0---6-5-3-3-5-6-3---3-5-3-6-5-3-----------3-5-6-0-|
    1 + 2 + 3 + 4 + 1 + 2 + 3 + 4 + 1 + 2 + 3 + 4 + 1 + 2 + 3 + 4 +

1:43
F#|---------------------------------|
C#|---------------------------------|
G#|---------------------------------|
C#|-7-7-7-7-7-7-7-7-7-7-7-7-7-7-7-7-|
    1 + 2 + 3 + 4 + 1 + 2 + 3 + 4 + 

1:45 Chorus
F#|------------------------------------------------------------------|
C#|o-----------------------------------------------------------------|
G#|o-------------------------7-7-7-7-1-1-1-1-1-1-1-1-1-1-1-1-1-3-1-0-|
C#|--0-0-0-0-0-0-0-0-0-0-0-0-----------------------------------------|
     1 + 2 + 3 + 4 + 1 + 2 + 3 + 4 + 1 + 2 + 3 + 4 + 1 + 2 + 3 + 4 +

F#|------------------------------------------------------------------|
C#|-----------------------------------------------------------------o|
G#|-----------------------------------------------------0-1---------o|
C#|-5-5-5-5-5-5-5-5-5-5-5-5-5-5-5-5-3-3-3-3-3-3-3-3-3-5-----3-5-3-2--|
    1 + 2 + 3 + 4 + 1 + 2 + 3 + 4 + 1 + 2 + 3 + 4 + 1 + 2 + 3 + 4 +

2:04 Interlude
F#|--------------------------------------------------|
C#|--------------------------------------------------|
G#|-----------------0-------0------------------------|
C#|-0-3-5-6-0-3-5-6---6-5-3---6-5-3------------------|
    1 + 2 + 3 + 4 + 1 + 2 + 3 + 4 + 1 + 2 + 3 + 4 + 

F#|-----------------------------------------------------------------|
C#|-----------------------------------------------------------------|
G#|-----------------0-------0-----------------------0-0-------------|
C#|-0-3-5-6-0-3-5-6---6-5-3---6-5-3-0-3-5-6-0-3-5-6-----6-6-5-5-4---|
    1 + 2 + 3 + 4 + 1 + 2 + 3 + 4 + 1 + 2 + 3 + 4 + 1 + 2 + 3 + 4 +

2:12
F#|-----------------------------------------------------------------|
C#|-----------------------------------------------------------------|
G#|-----------------------------------------------------------------|
C#|-0-------1-----------------------0---------------0-3-5-6-5-3-0-3-|
    1 + 2 + 3 + 4 + 1 + 2 + 3 + 4 + 1 + 2 + 3 + 4 + 1 + 2 + 3 + 4 +

F#|-----------------------------------------------------------------|
C#|-----------------------------------------------------------------|
G#|-----------------------------------------------------------------|
C#|-0---------------------------------------------------------------|
    1 + 2 + 3 + 4 + 1 + 2 + 3 + 4 + 1 + 2 + 3 + 4 + 1 + 2 + 3 + 4 +

2:21 Solo
F#|------------------------------------------------------------------------|
C#|o----------------------------8-7-5-------------------------------------o|
G#|o----------------------------------8-----------------------------------o|x4
C#|--0-0-0-0-12-0-10-0-12-0-0-0---------0-0-0-0-12-0-10-0-0-3-5-6-5-3-0-3--|
     1 + 2 + 3  + 4  + 1  + 2 + 3 + 4 + 1 + 2 + 3  + 4  + 1 + 2 + 3 + 4 +

2:39
F#|-------------------------------------------------------------------|
C#|o-----------------------------------------------------------------o|
G#|o-------------------------------------------------3---------------o|
C#|--0-0-0-0-0-0---0-0-0-0-0-0-0---0-0-0-0-0-0-0---0---6-5-6-3-5-3-2--|
     1 + 2 + 3 + 4 + 1 + 2 + 3 + 4 + 1 + 2 + 3 + 4 + 1 + 2 + 3 + 4 +

F#|-----------------------------------------------------------------|
C#|-----------------------------------------------------------------|
G#|-------------------------------------------------3---------------|
C#|-0---0---0-------0---0---0---0---0---0---0---------6-5-6-3-5-3-2-|
    1 + 2 + 3 + 4 + 1 + 2 + 3 + 4 + 1 + 2 + 3 + 4 + 1 + 2 + 3 + 4 +

F#|-----------------------------------------------------------------|
C#|-----------------------------------------------------------------|
G#|-------------------------------------------------3---------------|
C#|-0-0-0-0-0-------0---0---0---0---0---0---0---------------3-------|
    1 + 2 + 3 + 4 + 1 + 2 + 3 + 4 + 1 + 2 + 3 + 4 + 1 + 2 + 3 + 4 +

2:57 Chorus
F#|------------------------------------------------------------------|
C#|o-----------------------------------------------------------------|
G#|o-------------------------7-7-7-7-1-1-1-1-1-1-1-1-1-1-1-1-1-3-1-0-|
C#|--0-0-0-0-0-0-0-0-0-0-0-0-----------------------------------------|
     1 + 2 + 3 + 4 + 1 + 2 + 3 + 4 + 1 + 2 + 3 + 4 + 1 + 2 + 3 + 4 +

F#|------------------------------------------------------------------|
C#|-----------------------------------------------------------------o|
G#|-----------------------------------------------------0-1---------o|
C#|-5-5-5-5-5-5-5-5-5-5-5-5-5-5-5-5-3-3-3-3-3-3-3-3-3-5-----3-5-3-2--|
    1 + 2 + 3 + 4 + 1 + 2 + 3 + 4 + 1 + 2 + 3 + 4 + 1 + 2 + 3 + 4 +

3:16 Outro
F#|-----------------------------------------------------------------|
C#|-----0-2-3-2-0-----------------------0-2-3-2-0-------------------|
G#|---------------1-0-------0---------------------1-0---------------|
C#|-0-----------------5-3-2---5-3-5-0-------------------3---5---3-5-|
    1 + 2 + 3 + 4 + 1 + 2 + 3 + 4 + 1 + 2 + 3 + 4 + 1 + 2 + 3 + 4 +

F#|-----------------------------------------------------------------|
C#|-----0-2-3-2-0---------------------------------------------------|
G#|---------------1-0-------0---------------------------------------|
C#|-0-----------------5-3-2---5-3-5-3-3-3-5-5-5-7-7-7-2-2-2-2-2-2-2-|
    1 + 2 + 3 + 4 + 1 + 2 + 3 + 4 + 1 + 2 + 3 + 4 + 1 + 2 + 3 + 4 +

F#|-----------------------------------------------------------------|
C#|-----0-2-3-2-0-----------------------0-2-3-2-0-------------------|
G#|---------------1-0-------0---------------------1-0-------0-------|
C#|-0-----------------5-3-2---5-3-5-0-----------------5-3-2---5-3-2-|
    1 + 2 + 3 + 4 + 1 + 2 + 3 + 4 + 1 + 2 + 3 + 4 + 1 + 2 + 3 + 4 +

F#|-----------------------------------------------------------------|
C#|-----0-2-3-2-0---------------------------------------------------|
G#|---------------1-0-------0---------------------------------------|
C#|-0-----------------5-3-2---5-3-5-3-3-3-5-5-5-7-7-7-2-2-2-2-2-2-2-|
    1 + 2 + 3 + 4 + 1 + 2 + 3 + 4 + 1 + 2 + 3 + 4 + 1 + 2 + 3 + 4 +

F#|-----------------------------------------------------------------|
C#|-----------------------------------------------------------------|
G#|-----------------------------------------------------------------|
C#|-0---0-0-0---0-0-0-----------------------------------------------|
    1 + 2 + 3 + 4 + 1 + 2 + 3 + 4 + 1 + 2 + 3 + 4 + 1 + 2 + 3 + 4 +

Tabbed by Dave Vucko

*Requested by: mitchgruevski6
comments
We did not receive enough feedback on this tab! Please rate:
print report bad tab
1 2 3 4 5
I want to post or [tab]
guest
You may want to rate the tab now too:
select rating
Please do not post tabs as comments. Select "correction" instead!