Oops, an error
Loading. Please wait.

New Years Day Bass Tab

1,271 views 1 this week
no commentswrite comment
1 2 3 4 5
excellent!
x 1
Autoscroll
+/-
esc
set tempo
stop
Contributor
Tuning
C# G# C# F# A# D#
WARNING: You are trying to view
                                    content from Ultimate-Guitar.com
                                    in an unauthorized application,
                                    which is prohibited.

                                    Please use an official Ultimate
                                    Guitar Tabs application for iPhone,
                                    iPad or Android to access legitimate
                                    chords, guitar, bass, and drum tabs
                                    from Ultimate-Guitar.com database.

                                    Type "ultimate guitar tabs" in Apple
                                    App Store's or Android Market's
                                    search to find the application.
0:10
F#|-----------------------------------------------------------------|
C#|-----------------------------------------------------------------|
G#|-4---4---6---2---0---0---0-------4---4---6---2---0---0-----------|
C#|-----------------------------6---------------------------4---2---|

F#|-----------------------------------------------------------------|
C#|-----------------------------------------------------------------|
G#|-4---4---6---2---0---0---0-------4---4---6---2---0---0-----------|
C#|-----------------------------6---------------------------4---2---|

0:32
F#|-----------------------------------------------------------------|
C#|-----------------------------------------------------------------|
G#|-4-4-4-4-4-4-4-4-6-6-6-6-6-6-6-6-7-7-7-7-7-7-7-7-----------------|
C#|-------------------------------------------------9-\-------------|

0:37
F#|-----------------------------------------------------------------|
C#|-----------------------------------------------------------------|
G#|-4---4-4-4-4---4-0---0-0-0-0---0-----------------------------0-2-|
C#|---------------------------------2---2-2-2-2-----4---4-4-4-4-----|

F#|-----------------------------------------------------------------|
C#|-----------------------------------------------------------------|
G#|-4---4-4-4-4---4-0---0-0-0-0---0-------------------2-2-2-0-2-2-2-|
C#|---------------------------------2---2-2-2-2---------------------|

F#|----------------------------------------------------------------------|
C#|----------------------------------------------------------------------|
G#|-4-4-4-4-4-4-4-4-6-6-6-6-6-2-2-2-7-7-7-7-7-7-7-7-12-12-12-12-12-9-9-9-|
C#|----------------------------------------------------------------------|

F#|----------------------------------------------------------------------|
C#|----------------------------------------------------------------------|
G#|-4---4-4-4-4---4-0---0-0-0-0---0--------------------------------------|
C#|---------------------------------2---2-2-2-2-------9-9-9-9-9-9-9-11-\-|

rest

1:04
F#|-----------------------------------------------------------------|
C#|-----------------------------------------------------------------|
G#|-4-\-4-\-------------------------4-\-4-4-4---6-7-----------------|
C#|-----------------7-\-7-\-7-\---------------------7-\-7-\-4-4-6-6-|

1:15
F#|-----------------------------------------------------------------|
C#|-----------------------------------------------------------------|
G#|-4-------4---------4-4---4-4-4-4-0---0---0---0-------0---0-0-0-0-|
C#|-----------------------------------------------------------------|

F#|-----------------------------------------------------------------|
C#|-----------------------------------------------------------------|
G#|-4---4---r---4-------4---4-4-4-4-0---0---0---0-------------------|
C#|-------------------------------------------------6---7---4---6---|

F#|-----------------------------------------------------------------|
C#|-----------------------------------------------------------------|
G#|-4-4-4-4-4-4-4-4-6-6-6-6-6-6-6-6-7-7-7-7-7-7-7-7-----------------|
C#|-------------------------------------------------9-9-9-9-9-\-----|

1:30
F#|-----------------------------------------------------------------|
C#|-----------------------------------------------------------------|
G#|-4---4-4-4-4---4-0---0-0-0-0---0-----------------------------0-2-|
C#|---------------------------------2---2-2-2-2-----4---4-4-4-4-----|

F#|-----------------------------------------------------------------|
C#|-----------------------------------------------------------------|
G#|-4---4-4-4-4---4-0---0-0-0-0---0-------------------2-2-2-0-2-2-2-|
C#|---------------------------------2---2-2-2-2---------------------|

F#|---------------------------------------------------------------------|
C#|---------------------------------------------------------------------|
G#|-4-4-4-4-4-4-4-4-2-2-2-2-9-9-9-9-7-7-7-7-2-2-2-2-12-12-12-12-9-9-9-9-|
C#|---------------------------------------------------------------------|

F#|----------------------------------------------------------------------|
C#|----------------------------------------------------------------------|
G#|-4---4-4-4-4---4-0---0-0-0-0---0--------------------------------------|
C#|---------------------------------2---2-2-2-2-------9-9-9-9-9-9-9-11-\-|

rest

2:03
F#|-----------------------------------------------------------------|
C#|-------------------------------------------------------7-------6-|
G#|-4-4-4-4-------------------------0-0-0-0---------7-7-7---6-6-6---|
C#|-----------------2-2-2-2-----------------------------------------|

F#|-----------------------------------------------------------------|
C#|-------------------------------------------------------7-------6-|
G#|-4-4-4-4-4-\---------------------0-0-0-0---------7-7-7---6-6-6---|
C#|-----------------2-2-2-2-----------------------------------------|

F#|-----------------------------------------------------------------|
C#|-------------------------------------------------------7-------6-|
G#|-4-4-4-4-4-4-4-4-----------------0-0-0-0-0-0-0-0-7-7-7---6-6-6---|
C#|-----------------2-2-2-2-2-2-2-2---------------------------------|

F#|-----------------------------------------------------------------|
C#|-----------------------------------------------------------------|
G#|-4-4-4-4-4-4-4-4-----------------0-0-0-0-0-0-0-0-----------------|
C#|-----------------2-2-2-2-2-2-2-2-----------------6-6-6-6-6-6-6-6-|

2:24
F#|-----------------------------------------------------------------|
C#|-----------------------------------------------------------------|
G#|-4---4-4-4-4---4-0---0-0-0-0---0-----------------------------0-2-|
C#|---------------------------------2---2-2-2-2-----4---4-4-4-4-----|

F#|-----------------------------------------------------------------|
C#|-----------------------------------------------------------------|
G#|-4---4-4-4-4---4-0---0-0-0-0---0-7---7-7-7-7-7-7-9-----------0-2-|
C#|---------------------------------------------------4-4-4-4-4-----|

2:34
F#|-----------------------------------------------------------------|
C#|-----------------------------------------------------------------|
G#|-4---4---4---4---6---6---2---2---7-7-7-7-------------------------|
C#|-----------------------------------------2-2-2-2-7-7-7-7-4-4-4-4-|

F#|---------------------------------------------------------------------|
C#|---------------------------------------------------------------------|
G#|-4---4-4-4-4---4-0---0-0-0-0---0-7-7-7-7-7-7-7-7---------2-2-2-2-4-\-|
C#|-------------------------------------------------4-4-4-4-------------|

rest

2:51
F#|-----------------------------------------------------------------|
C#|-----------------------------------------------------------------|
G#|-4---4-4-4-4---4-0---0-0-0-0---0-----------------------------0-2-|
C#|---------------------------------2---2-2-2-2-----4---4-4-4-4-----|

F#|-----------------------------------------------------------------|
C#|-----------------------------------------------------------------|
G#|-4---4-4-4-4---4-0---0-0-0-0---0-------------------2-2-2-0-2-2-2-|
C#|---------------------------------2---2-2-2-2---------------------|

F#|----------------------------------------------------------------------|
C#|----------------------------------------------------------------------|
G#|-4-4-4-4-4-4-4-4-6-6-6-6-6-2-2-2-7-7-7-7-7-7-7-7-12-12-12-12-12-9-9-9-|
C#|----------------------------------------------------------------------|

F#|-----------------------------------------------------------------|
C#|-----------------------------------------------------------------|
G#|-4---4-4-4-4---4-0---0-0-0-0---0---------------------------------|
C#|---------------------------------2---2-2-2-2--------9-\----------|
Tabbed by Dave Vucko
comments
We did not receive enough feedback on this tab! Please rate:
print report bad tab
1 2 3 4 5
I want to post or [tab]
guest
You may want to rate the tab now too:
select rating
Please do not post tabs as comments. Select "correction" instead!