Oops, an error
Loading. Please wait.

Nobodys Hero Bass Tab

2,744 views 9 this week
no commentswrite comment
1 2 3 4 5
excellent!
x 3
add to favorites launch autoscroll
font size
0
reset
Autoscroll
+/-
esc
set tempo
stop
Contributor
Tuning
C# G# C# F# A# D#
WARNING: You are trying to view
                                    content from Ultimate-Guitar.com
                                    in an unauthorized application,
                                    which is prohibited.

                                    Please use an official Ultimate
                                    Guitar Tabs application for iPhone,
                                    iPad or Android to access legitimate
                                    chords, guitar, bass, and drum tabs
                                    from Ultimate-Guitar.com database.

                                    Type "ultimate guitar tabs" in Apple
                                    App Store's or Android Market's
                                    search to find the application.
F#|-----------------------------------------------------------------|
C#|-----------------------------------------------------------------|
G#|-------------------------------------------------4---2-2-4-2-1-2-|
C#|-6---6-------6-6-6-6-6-6-6-8-9---2---2-------2-2-----------------|
    1 e + a 2 e + a 3 e + a 4 e + a 1 e + a 2 e + a 3 e + a 4 e + a

F#|-----------------------------------------------------------------|
C#|-----------------------------------------------------------------|
G#|-----------------7-----6-----7-----------2h4p2-1---------4h6p4-2-|
C#|-6---6-------6-6---6-6---6-6-----2---2-----------4---4-----------|
    1 e + a 2 e + a 3 e + a 4 e + a 1 e + a 2 e + a 3 e + a 4 e + a

0:09
F#|-----------------------------------------------------------------|
C#|-----------------------------------------------------------------|
G#|-----------------------------------------------------------------|
C#|-6-r-6-r-6-r-6-r-6-r-6-r-6-r-6-r-6-r-6-r-6-r-6-r-6-r-6-r-6-r-6-r-|
    1 e + a 2 e + a 3 e + a 4 e + a 1 e + a 2 e + a 3 e + a 4 e + a

F#|-----------------------------------------------------------------|
C#|-----------------------------------------------------------------|
G#|---------------------------------------------------------4h6p4-2-|
C#|-2---2-2---2-2---2-2-2---2-2-2---4---4-4---4-4---4-4-4-----------|
    1 e + a 2 e + a 3 e + a 4 e + a 1 e + a 2 e + a 3 e + a 4 e + a

F#|-----------------------------------------------------------------|
C#|-----------------------------------------------------------------|
G#|-----------------------------------------------------------------|
C#|-6-6r6-6r6-6r6-6r6-6r6-6r6-6r6-6r6-6r6-6r6-6r6-6r6-6r6-6r6-6r6-6-|
    1 e + a 2 e + a 3 e + a 4 e + a 1 e + a 2 e + a 3 e + a 4 e + a

F#|-----------------------------------------------------------------|
C#|-----------------------------------------------------------------|
G#|---------------------------------------------------------1-2-1---|
C#|-2---2-2---2-2---2-2-2---2-2-2-2-4---4-4---4-4---4-4-4-4-------4-|
    1 e + a 2 e + a 3 e + a 4 e + a 1 e + a 2 e + a 3 e + a 4 e + a

0:27
F#|-----------------------------------------------------------------|
C#|-----------------------------------------------------------------|
G#|-----------------------------------------------------------------|
C#|-2-2-2-2-2-2-2-2-4-4-4-4-4-4-4-4-5-5-5-5-5-5-5-5-6-6-6-6-1-1-1-1-|
    1 e + a 2 e + a 3 e + a 4 e + a 1 e + a 2 e + a 3 e + a 4 e + a

F#|-----------------------------------------------------------------|
C#|-----------------------------------------------------------------|
G#|-----------------------------------------------------------------|
C#|-2-2-2-2-2-2-2-2-4-4-4-4-4-4-4-4-1---1---1---1---13-\------------|
    1 e + a 2 e + a 3 e + a 4 e + a 1 e + a 2 e + a 3 e + a 4 e + a

0:36
F#|-----------------------------------------------------------------|
C#|-----------------------------------------------------------------|
G#|---------------------------------2---2-2-2-2---2-2---2-2-2-2---2-|
C#|-6---6-6-6-6---6-6---6-6-6-6---6---------------------------------|
    1 e + a 2 e + a 3 e + a 4 e + a 1 e + a 2 e + a 3 e + a 4 e + a

F#|-----------------------------------------------------------------|
C#|-----------------------------------------------------------------|
G#|-----------------------------------------------------------------|
C#|-2---2-2-2-2---2-2---2-2-2-2---2-4---4-4-4-4---4-4---4-4-4-4---4-|
    1 e + a 2 e + a 3 e + a 4 e + a 1 e + a 2 e + a 3 e + a 4 e + a

F#|-----------------------------------------------------------------|
C#|-----------------------------------------------------------------|
G#|---------------------------------2---2-2-2-2---2-2---2-2-2-2---2-|
C#|-6---6-6-6-6---6-6---6-6-6-6---6---------------------------------|
    1 e + a 2 e + a 3 e + a 4 e + a 1 e + a 2 e + a 3 e + a 4 e + a

F#|-----------------------------------------------------------------|
C#|-----------------------------------------------------------------|
G#|-----------------------------------------------------------------|
C#|-2---2-2-2-2---2-2---2-2-2-2---2-4---4-4-4-4---4-4-\-\-\---------|
    1 e + a 2 e + a 3 e + a 4 e + a 1 e + a 2 e + a 3 e + a 4 e + a

0:54
F#|-----------------------------------------------------------------|
C#|-----------------------------------------------------------------|
G#|-------------------------------------------------4---2-2-4-2-1-2-|
C#|-6---6-------6-6-6-6-6-6-6-8-9---2---2-------2-2-----------------|
    1 e + a 2 e + a 3 e + a 4 e + a 1 e + a 2 e + a 3 e + a 4 e + a

F#|-----------------------------------------------------------------|
C#|-----------------------------------------------------------------|
G#|-----------------7-----6-----7-----------2h4p2-1---------4h6p4-2-|
C#|-6---6-------6-6---6-6---6-6-----2---2-----------4---4-----------|
    1 e + a 2 e + a 3 e + a 4 e + a 1 e + a 2 e + a 3 e + a 4 e + a

1:04
F#|-----------------------------------------------------------------|
C#|-----------------------------------------------------------------|
G#|-----------------------------------------------------------6-6-6-|
C#|-6-r-6-r-6-r-6-r-6-r-6-r-6-r-6-r-6-r-6-r-6-r-6-r-6-r-6-r---------|
    1 e + a 2 e + a 3 e + a 4 e + a 1 e + a 2 e + a 3 e + a 4 e + a

F#|-----------------------------------------------------------------|
C#|-------------------------------------------------4-2-1---1-------|
G#|-------------------------------------------------------4---4-2-1-|
C#|-2---2-2---2-2---2-2-2---2-2-2---4---4-4---4-4-------------------|
    1 e + a 2 e + a 3 e + a 4 e + a 1 e + a 2 e + a 3 e + a 4 e + a

F#|-----------------------------------------------------------------|
C#|-----------------------------------------------------------------|
G#|-----------------------------------------------------------6-6-6-|
C#|-6-6-6-6-6-6-6-6-6-6-6-6-6-6-6-6-6-6-6-6-6-6-6-6-6-6-6-6-6-------|
    1 e + a 2 e + a 3 e + a 4 e + a 1 e + a 2 e + a 3 e + a 4 e + a

F#|-----------------------------------------------------------------|
C#|-----------------------------------------------------------------|
G#|-----------------------------------------------------------------|
C#|-2---2-2---2-2---2-2-2---2-2-2-2-4---4-4---4-4---4-4-4-4-4-4-4---|
    1 e + a 2 e + a 3 e + a 4 e + a 1 e + a 2 e + a 3 e + a 4 e + a

1:22
F#|-----------------------------------------------------------------|
C#|-----------------------------------------------------------------|
G#|-----------------------------------------------------------------|
C#|-2-2-2-2-2-2-2-2-4-4-4-4-4-4-4-4-5-5-5-5-2-2-2-2-6-6-6-6-1-1-1-1-|
    1 e + a 2 e + a 3 e + a 4 e + a 1 e + a 2 e + a 3 e + a 4 e + a

F#|-----------------------------------------------------------------|
C#|-----------------------------------------------------------------|
G#|-------------------------------------------------6---\-----------|
C#|-2-2-2-2-2-2-2-2-4-4-4-4-4-4-4-4-1---1---1---1-------------------|
    1 e + a 2 e + a 3 e + a 4 e + a 1 e + a 2 e + a 3 e + a 4 e + a

1:32
F#|-----------------------------------------------------------------|
C#|-----------------------------------------------------------------|
G#|---------------------------------2---2-2-2-2---2-2---2-2-2-2---2-|
C#|-6---6-6-6-6---6-6---6-6-6-6---6---------------------------------|
    1 e + a 2 e + a 3 e + a 4 e + a 1 e + a 2 e + a 3 e + a 4 e + a

F#|-----------------------------------------------------------------|
C#|-----------------------------------------------------------------|
G#|-----------------------------------------------------------------|
C#|-2---2-2-2-2---2-2---2-2-2-2---2-4---4-4-4-4---4-4---4-4-4-4---4-|
    1 e + a 2 e + a 3 e + a 4 e + a 1 e + a 2 e + a 3 e + a 4 e + a

F#|-----------------------------------------------------------------|
C#|-----------------------------------------------------------------|
G#|---------------------------------2---2-2-2-2---2-2---2-2-2-2---2-|
C#|-6---6-6-6-6---6-6---6-6-6-6---6---------------------------------|
    1 e + a 2 e + a 3 e + a 4 e + a 1 e + a 2 e + a 3 e + a 4 e + a

F#|-----------------------------------------------------------------|
C#|-----------------------------------------------------------------|
G#|-------------------------------------------------6---6---6-4-2-1-|
C#|-2---2-2-2-2---2-2---2-2-2-2---2-4---4-4-4-4---4-----------------|
    1 e + a 2 e + a 3 e + a 4 e + a 1 e + a 2 e + a 3 e + a 4 e + a

1:50
F#|-----------------------------------------------------------------|
C#|-----------------------------------------------------------------|
G#|-----------------7-----6-----7-------------------4---2-2-4-2-1-2-|
C#|-6---6-------6-6---6-6---6-6-----2---2-------2-2-----------------|
    1 e + a 2 e + a 3 e + a 4 e + a 1 e + a 2 e + a 3 e + a 4 e + a

F#|-----------------------------------------------------------------|
C#|-----------------------------------------------------------------|
G#|-----------------7-----6-----7-----------2h4p2-1---------4h6p4-2-|
C#|-6---6-------6-6---6-6---6-6-----2---2-----------4---4-----------|
    1 e + a 2 e + a 3 e + a 4 e + a 1 e + a 2 e + a 3 e + a 4 e + a

1:58
F#|-----------------------------------------------------------------|
C#|-----------------------------------------------------------------|
G#|-4---4---4---4---4---4---2---2---1---1---1---1-------------------|
C#|-------------------------------------------------5---5---5---5---|

F#|-----------------------------------------------------------------|
C#|-------------------------------------------------9---8---6---4---|
G#|-----------------1---1---1---1---2---2---2---2-------------------|
C#|-6---6---6---6---------------------------------------------------|

F#|-----------------------------------------------------------------|
C#|-------------1---2---1-------------------------------------------|
G#|-4---4---4---------------4---2---1---1---1---1-------------------|
C#|-------------------------------------------------5---5---5---5---|

F#|-----------------------------------------------------------------|
C#|-----------------------------------------------------------------|
G#|-----------------------------------------------------------------|
C#|-6---6---6---6---6---6---6---6---5---5---5---5---1---1---1---1---|

Rest

2:21
F#|-----------------------------------------------------------------------|
C#|-2-2-------------------------------------------------------------------|
G#|-----2---------------------------------------------------------6-7-6-4-|
C#|-------2---2-2---2-2---2-2-2---2-2-2---4---4-4---4-4---4-4-4-4---------|
          1 e + a 2 e + a 3 e + a 4 e + a 1 e + a 2 e + a 3 e + a 4 e + a

F#|-----------------------------------------------------------------|
C#|-----------------------------------------------------------------|
G#|-----7---6-----7---6---6-7---6-4-----7---6-----7---6---6-7---6-4-|
C#|-6-6---6---6-6---6---6-----6-----6-6---6---6-6---6---6-----6-----|
    1 e + a 2 e + a 3 e + a 4 e + a 1 e + a 2 e + a 3 e + a 4 e + a

F#|-----------------------------------------------------------------|
C#|-----------------------------------------------------------------|
G#|-----------------------------------------------------------------|
C#|-2---2-2---2-2---2-2-2---2-2-2---4---4-4---4-4---4-4-4-4-4-4-4-4-|
    1 e + a 2 e + a 3 e + a 4 e + a 1 e + a 2 e + a 3 e + a 4 e + a

F#|-----------------------------------------------------------------|
C#|-----------------------------------------------------------------|
G#|-----------------------------------------------------------------|
C#|-2-2-2-2-2-2-2-2-4-4-4-4-4-4-4-4-5-5-5-5-5-5-5-5-6-6-6-6-1-1-1-1-|
    1 e + a 2 e + a 3 e + a 4 e + a 1 e + a 2 e + a 3 e + a 4 e + a

F#|-----------------------------------------------------------------|
C#|-----------------------------------------------------------------|
G#|-------------------------------------------------6-6-6-6-6---6---|
C#|-2-2-2-2-2-2-2-2-4-4-4-4-4-4-4-4-1-1-1-1-1-1-1-1-----------------|
    1 e + a 2 e + a 3 e + a 4 e + a 1 e + a 2 e + a 3 e + a 4 e + a

2:45
F#|-----------------------------------------------------------------|
C#|-----------------------------------------------------------------|
G#|---------------------------------2---2-2-2-2---2-2---2-2-2-4-----|
C#|-6---6-6-6-6---6-6---6-6-6-6---6---------------------------------|
    1 e + a 2 e + a 3 e + a 4 e + a 1 e + a 2 e + a 3 e + a 4 e + a

F#|-----------------------------------------------------------------|
C#|-----------------------------------------------------------------|
G#|-7---7-7-7-7---7-7---7-7-7-7---7-9---9-9-9-9---9-----------------|
C#|-------------------------------------------------4---4-4-4-4---4-|
    1 e + a 2 e + a 3 e + a 4 e + a 1 e + a 2 e + a 3 e + a 4 e + a

F#|-----------------------------------------------------------------|
C#|-----------------------------------------------------------------|
G#|---------------------------------2---2-2-2-2---2-2---2-2-2-2---2-|
C#|-6---6-6-6-6---6-6---6-6-6-6---6---------------------------------|
    1 e + a 2 e + a 3 e + a 4 e + a 1 e + a 2 e + a 3 e + a 4 e + a

F#|-----------------------------------------------------------------|
C#|-----------------------------------------------------------------|
G#|-----------------------------------------------------------------|
C#|-2---2-2-2-2---2-2---2-2-2-2---2-4---4-4-4-4---4-4---4-4-4-4---4-|
    1 e + a 2 e + a 3 e + a 4 e + a 1 e + a 2 e + a 3 e + a 4 e + a

3:03
F#|-----------------------------------------------------------------|
C#|---------------------6---4-----------------------9---8---6---4---|
G#|-----------------------------6---2---2---2---2-------------------|
C#|-6---6---6---6---6-----------------------------------------------|

F#|-----------------------------------------------------------------|
C#|-----------------------------------------------------------------|
G#|-7---7---6---6---4---4---2---2---1---1---1---4-------------------|
C#|-------------------------------------------------4---4---5---5---|

F#|-----------------------------------------------------------------|
C#|-----------------------------------------------------------------|
G#|---------------------------------2---2-2-2-2---2-2---2-2-2-2---2-|
C#|-6---6-6-6-6---6-6---6-6-6-6---6---------------------------------|
    1 e + a 2 e + a 3 e + a 4 e + a 1 e + a 2 e + a 3 e + a 4 e + a

F#|-----------------------------------------------------------------|
C#|-----------------------------------------------------------------|
G#|-----------------------------------------------------------------|
C#|-2---2-2-2-2---2-2---2-2-2-2---2-4---4---4---4---5---5---6-\-----|
    1 e + a 2 e + a 3 e + a 4 e + a 1 e + a 2 e + a 3 e + a 4 e + a

F#|-----------------------------------------------------------------|
C#|-----------------------------------------------------------------|
G#|-------------------------------------------------4---2-2-4-2-1-2-|
C#|-6---6-------6-6-6-6-6-6-6-8-9---2---2-------2-2-----------------|
    1 e + a 2 e + a 3 e + a 4 e + a 1 e + a 2 e + a 3 e + a 4 e + a

F#|-----------------------------------------------------------------------|
C#|-----------------------------------------------------------------------|
G#|-----------------7-----6-----7-----------2h4p2-1---------4h6p4-2-------|
C#|-6---6-------6-6---6-6---6-6-----2---2-----------4---4-----------6-\---|
    1 e + a 2 e + a 3 e + a 4 e + a 1 e + a 2 e + a 3 e + a 4 e + a
Tabbed by Dave Vucko
comments
We did not receive enough feedback on this tab! Please rate:
print report bad tab
1 2 3 4 5
I want to post or [tab]
guest
You may want to rate the tab now too:
select rating
Please do not post tabs as comments. Select "correction" instead!