Oops, an error
Loading. Please wait.

Rebel Yell Bass Tab

1,482 views 12 this week
no commentswrite comment
1 2 3 4 5
excellent!
x 2
Autoscroll
+/-
esc
set tempo
stop
Contributor
Tuning
C# G# C# F# A# D#
Hey! There's an official Ultimate Guitar app which is ideal
for learning songs when you're away from computer. Get the app
WARNING: You are trying to view
                                    content from Ultimate-Guitar.com
                                    in an unauthorized application,
                                    which is prohibited.

                                    Please use an official Ultimate
                                    Guitar Tabs application for iPhone,
                                    iPad or Android to access legitimate
                                    chords, guitar, bass, and drum tabs
                                    from Ultimate-Guitar.com database.

                                    Type "ultimate guitar tabs" in Apple
                                    App Store's or Android Market's
                                    search to find the application.
F#|-----------------------------------------------------------------|
C#|-----------------------------------------------------------------|
G#|-----------------------------------------------------------------|
C#|-7-7-7-7-7-7-7-7-7-7-7-7-7-7-7-7-3-3-3-3-3-3-3-3-5-5-5-5-5-5-5-5-|
    1 + 2 + 3 + 4 + 1 + 2 + 3 + 4 + 1 + 2 + 3 + 4 + 1 + 2 + 3 + 4 +

F#|-----------------------------------------------------------------|
C#|-----------------------------------------------------------------|
G#|-----------------------------------------------------------------|
C#|-7-7-7-7-7-7-7-7-7-7-7-7-7-7-7-7-3-3-3-3-3-3-3-3-0-0-0-0-0-0-0-0-|
    1 + 2 + 3 + 4 + 1 + 2 + 3 + 4 + 1 + 2 + 3 + 4 + 1 + 2 + 3 + 4 +

F#|-----------------------------------------------------------------|
C#|-----------------------------------------------------------------|
G#|-----------------------------------------------------------------|
C#|-3-3-3-3-3-3-3-3-2-2-2-2---1---1-0-0-0-0-0-0-0-0-0-0-0-0---0---0-|
    1 + 2 + 3 + 4 + 1 + 2 + 3 + 4 + 1 + 2 + 3 + 4 + 1 + 2 + 3 + 4 +

F#|-----------------------------------------------------------------|
C#|-----------------------------------------------------------------|
G#|---------------------------------------------------------3-------|
C#|-3-3-3-3-3-3-3-3-2-2-2-2---1---1-0-0-0-0-0-0-7-7-0-0-0-0-----5---|
    1 + 2 + 3 + 4 + 1 + 2 + 3 + 4 + 1 + 2 + 3 + 4 + 1 + 2 + 3 + 4 +

F#|---------------------------------|
C#|---------------------------------|
G#|---------------------------------|
C#|-7-------------------------------|
    1 + 2 + 3 + 4 + 1 + 2 + 3 + 4 + 

0:26
F#|------------------------------------------------------------------|
C#|o-----------------------------------------------------------------|
G#|o-----------------------------------------------------------------|
C#|--7---7---7-7-7-7-7---7---7-7-7-7-7---7---7-7-7-7-7---7---7-7-7-7-|
     1 + 2 + 3 + 4 + 1 + 2 + 3 + 4 + 1 + 2 + 3 + 4 + 1 + 2 + 3 + 4 +

F#|------------------------------------------------------------------|
C#|-----------------------------------------------------------------o|
G#|---------------------------------------------------------3-------o|
C#|-3---3---3-3-3-3-3---3---3-3-3-3-0---0---0-0-0-0-0---0-------5----|
    1 + 2 + 3 + 4 + 1 + 2 + 3 + 4 + 1 + 2 + 3 + 4 + 1 + 2 + 3 + 4 +

0:49
F#|------------------------------------------------------------------|
C#|o-----------------------------------------------------------------|
G#|o-----------------------------------------------------------------|
C#|--7-7-7-7-7-7-7-7-7-7-7-7-5-7-5-5-7-7-7-7-7-7-7-7-7-7-7-7-5-7-5-5-|
     1 + 2 + 3 + 4 + 1 + 2 + 3 + 4 + 1 + 2 + 3 + 4 + 1 + 2 + 3 + 4 +

F#|------------------------------------------------------------------|
C#|-----------------------------------------------------------------o|
G#|-3-3-3-3-3-3-3-3-3-3-3-3---------------------------------3-------o|
C#|-------------------------5-7-5-5-3-3-3-3-3-3-3-3-3-3-3-3-----5----|
    1 + 2 + 3 + 4 + 1 + 2 + 3 + 4 + 1 + 2 + 3 + 4 + 1 + 2 + 3 + 4 +

1:11
F#|-----------------------------------------------------------------|
C#|-----------------------------------------------------------------|
G#|-----------------------------------------------------------------|
C#|-7---7---7-7-7-7---7-7---7-7-7-7-7-------------------------------|
    1 + 2 + 3 + 4 + 1 + 2 + 3 + 4 + 1 + 2 + 3 + 4 + 1 + 2 + 3 + 4 +

1:17
F#|------------------------------------------------------------------|
C#|o-----------------------------------------------------------------|
G#|o-----------------------------------------------------------------|
C#|--7-777-777-777-777-777-777-777-777-777-777-777-777-777-777-777-77|
     1 + 2 + 3 + 4 + 1 + 2 + 3 + 4 + 1 + 2 + 3 + 4 + 1 + 2 + 3 + 4 +

F#|------------------------------------------------------------------|
C#|-----------------------------------------------------------------o|
G#|---------------------------------------------------------3-------o|
C#|-3-333-333-333-333-333-333-333-330-000-000-000-000-000-00----5----|
    1 + 2 + 3 + 4 + 1 + 2 + 3 + 4 + 1 + 2 + 3 + 4 + 1 + 2 + 3 + 4 +

1:39
F#|-----------------------------------------------------------------|
C#|-----------------------------------------------------------------|
G#|-----------------------------------------------------------------|
C#|-7-7-7-7-7-7-7-7-7-7-7-7-5-7-5-5-7-7-7-7-7-7-7-7-7-7-7-7-5-7-5-5-|
    1 + 2 + 3 + 4 + 1 + 2 + 3 + 4 + 1 + 2 + 3 + 4 + 1 + 2 + 3 + 4 +

F#|-----------------------------------------------------------------|
C#|-----------------------------------------------------------------|
G#|-3-3-3-3-3-3-3-3-3-3-3-3---------------------------------3-------|
C#|-------------------------5-7-5-5-3-3-3-3-3-3-3-3-3-3-3-3-----5---|
    1 + 2 + 3 + 4 + 1 + 2 + 3 + 4 + 1 + 2 + 3 + 4 + 1 + 2 + 3 + 4 +

F#|-----------------------------------------------------------------|
C#|-----------------------------------------------------------------|
G#|-----------------------------------------------------------------|
C#|-7-7-7-7-7-7-7-7-7-7-7-7-5-7-5-5-7-7-7-7-7-7-7-7-7-7-7-7-5-7-5-5-|
    1 + 2 + 3 + 4 + 1 + 2 + 3 + 4 + 1 + 2 + 3 + 4 + 1 + 2 + 3 + 4 +

F#|-----------------------------------------------------------------|
C#|-----------------------------------------------------------------|
G#|-3-3-3-3-3-3-3-3-3-3-3-3-------------------------3---3-----------|
C#|-------------------------5-7-5-5-3-3-3-3-3-3-3-3-------------0-0-|
    1 + 2 + 3 + 4 + 1 + 2 + 3 + 4 + 1 + 2 + 3 + 4 + 1 + 2 + 3 + 4 +

2:03
F#|-----------------------------------------------------------------|
C#|-----------------------------------------------------------------|
G#|-----------------------------------------------------------------|
C#|-3-3-3-3-3-3-3-3-2-2-2-2---1---1-0-0-0-0-0-0-0-0-0-0-0-0---0---0-|
    1 + 2 + 3 + 4 + 1 + 2 + 3 + 4 + 1 + 2 + 3 + 4 + 1 + 2 + 3 + 4 +

F#|-----------------------------------------------------------------|
C#|-----------------------------------------------------------------|
G#|-----------------------------------------------------------------|
C#|-3-3-3-3-3-3-3-3-2-2-2-2---1---1-0-0-0-0-0-0-7-7-0-0-0-0-0---0---|
    1 + 2 + 3 + 4 + 1 + 2 + 3 + 4 + 1 + 2 + 3 + 4 + 1 + 2 + 3 + 4 +

F#|-----------------------------------------------------------------|
C#|-----------------------------------------------------------------|
G#|-----------------------------------------------------------------|
C#|-3-3-3-3-3-3-3-3-2-2-2-2---1---1-0-0-0-0-0-0-0-0-0-0-0-0---0---0-|
    1 + 2 + 3 + 4 + 1 + 2 + 3 + 4 + 1 + 2 + 3 + 4 + 1 + 2 + 3 + 4 +

F#|-----------------------------------------------------------------|
C#|-----------------------------------------------------------------|
G#|---------------------------------------------------------3-------|
C#|-3-3-3-3-3-3-3-3-2-2-2-2---1---1-0-0-0-0-0-0-7-7-0-0-0-0-----5---|
    1 + 2 + 3 + 4 + 1 + 2 + 3 + 4 + 1 + 2 + 3 + 4 + 1 + 2 + 3 + 4 +

F#|-----------------------------------------------------------------|
C#|-----------------------------------------------------------------|
G#|-----------------------------------------------------------------|
C#|-7---------------------------------------------7-7-------7---7---|
    1 + 2 + 3 + 4 + 1 + 2 + 3 + 4 + 1 + 2 + 3 + 4 + 1 + 2 + 3 + 4 +

2:31
F#|------------------------------------------------------------------|
C#|o-----------------------------------------------------------------|
G#|o-----------------------------------------------------------------|
C#|--7-7-7-7-7-7-7-7-7-7-7-7-7-7-7-7-7-7-7-7-7-7-7-7-7-7-7-7-7-7-6-6-|
     1 + 2 + 3 + 4 + 1 + 2 + 3 + 4 + 1 + 2 + 3 + 4 + 1 + 2 + 3 + 4 +

F#|------------------------------------------------------------------|----------------|
C#|-----------------------------------------------------------------o|----------------|
G#|---------------------------------------------------------3-------o|----------------|
C#|-5-5-5-5-5-5-5-5-5-5-5-5-5-5-4-4-3-3-3-3-3-3-3-3-0-0-0-0-----5----|-7--------------|
    1 + 2 + 3 + 4 + 1 + 2 + 3 + 4 + 1 + 2 + 3 + 4 + 1 + 2 + 3 + 4 +    1 + 2 + 3 + 4 +

2:56
F#|------------------------------------------------------------------|
C#|o-----------------------------------------------------------------|
G#|o-----------------------------------------------------------------|
C#|--7-7-7-7-7-7-7-7-7-7-7-7-7-7-7-7-7-7-7-7-7-7-7-7-7-7-7-7-7-7-6-6-|
     1 + 2 + 3 + 4 + 1 + 2 + 3 + 4 + 1 + 2 + 3 + 4 + 1 + 2 + 3 + 4 +

F#|------------------------------------------------------------------|
C#|-----------------------------------------------------------------o|
G#|---------------------------------------------------------3-------o|x4
C#|-5-5-5-5-5-5-5-5-5-5-5-5-5-5-4-4-3-3-3-3-3-3-3-3-0-0-0-0-----5----|
    1 + 2 + 3 + 4 + 1 + 2 + 3 + 4 + 1 + 2 + 3 + 4 + 1 + 2 + 3 + 4 + 

3:41
F#|------------------------------------------------------------------|
C#|o-----------------------------------------------------------------|
G#|o-----------------------------------------------------------------|
C#|--7-7-7-7-7-7-7-7-7-7-7-7-5-7-5-5-7-7-7-7-7-7-7-7-7-7-7-7-5-7-5-5-|
     1 + 2 + 3 + 4 + 1 + 2 + 3 + 4 + 1 + 2 + 3 + 4 + 1 + 2 + 3 + 4 +

F#|------------------------------------------------------------------|
C#|-----------------------------------------------------------------o|
G#|-3-3-3-3-3-3-3-3-3-3-3-3---------------------------------3-------o|
C#|-------------------------5-7-5-5-3-3-3-3-3-3-3-3-3-3-3-3-----5----|
    1 + 2 + 3 + 4 + 1 + 2 + 3 + 4 + 1 + 2 + 3 + 4 + 1 + 2 + 3 + 4 +

4:04
F#|------------------------------------------------------------------|
C#|o-----------------------------------------------------------------|
G#|o-----------------------------------------------------------------|
C#|--7-7-7-7-7-7-7-7-7-7-7-7-5-7-5-5-7-7-7-7-7-7-7-7-7-7-7-7-5-7-5-5-|
     1 + 2 + 3 + 4 + 1 + 2 + 3 + 4 + 1 + 2 + 3 + 4 + 1 + 2 + 3 + 4 +

F#|------------------------------------------------------------------|
C#|-----------------------------------------------------------------o|
G#|-3-3-3-3-3-3-3-3-3-3-3-3---------------------------------3-------o|
C#|-------------------------5-7-5-5-3-3-3-3-3-3-3-3-3---3-------5----|
    1 + 2 + 3 + 4 + 1 + 2 + 3 + 4 + 1 + 2 + 3 + 4 + 1 + 2 + 3 + 4 +

F#|-----------------------------------------------------------------------|
C#|-----------------------------------------------------------------------|
G#|-----------------------------------------------------------------------|
C#|-7-7-7-7-7-7-7-7-7-7-7-7-7-7-7-7-3-3-3-3-3-3-3-3-5-5-5-5-5-5-5-5-7-7---|
    1 + 2 + 3 + 4 + 1 + 2 + 3 + 4 + 1 + 2 + 3 + 4 + 1 + 2 + 3 + 4 +
comments
We did not receive enough feedback on this tab! Please rate:
print report bad tab
1 2 3 4 5
I want to post or [tab]
guest
You may want to rate the tab now too:
select rating
Please do not post tabs as comments. Select "correction" instead!