Oops, an error
Loading. Please wait.

Revelation Tab

ver1
ver1

Whole song

Interactive

More versions @911Tabs.com
4,262 views 39 this week
2 commentsread comments
1 2 3 4 5
excellent!
x 4
Autoscroll
+/-
esc
set tempo
stop
Contributor
Difficulty
Tuning
advanced
C# G# C# F# A# D#
Hey! There's an official Ultimate Guitar app which is ideal
for learning songs when you're away from computer. Get the app
WARNING: You are trying to view
                                    content from Ultimate-Guitar.com
                                    in an unauthorized application,
                                    which is prohibited.

                                    Please use an official Ultimate
                                    Guitar Tabs application for iPhone,
                                    iPad or Android to access legitimate
                                    chords, guitar, bass, and drum tabs
                                    from Ultimate-Guitar.com database.

                                    Type "ultimate guitar tabs" in Apple
                                    App Store's or Android Market's
                                    search to find the application.
----------------------------------------------------------------------------
                              Revelation
                           Black Veil Brides
----------------------------------------------------------------------------

Black Veil Brides just can’t take a break. Even after “Wretched and Divine” they 
are still putting out some killer material. “Revelation” is a very fun to play if 
you can get the leads down. Enjoy!

Username: dkm817 (same on X box live)
Youtube Cover: http://www.youtube.com/watch?v=7z73i-dEECM
Email: guitardrums@rockfan.com

Guitar 1 Rhythmic (C# G# C# F# A# D#)
Guitar 2 Lead     (C# G# C# F# A# D#)
Guitar 3 Lead     (C# G# C# F# A# D#)


NOTE: This was exported off of guitar pro.


Guitar 1


         PM PM     PM PM         PM PM PM PM                               
      E  S  S   E  S  S   E   E  S  S  S  S     E  E  E  E  S  S E  E  E   
D#||-----------------------------------------|----------------------------|
A#||-----------------------------------------|----------------------------|
F#||-----------------------------------------|----------------------------|
C#||-----------------------------------------|----------------------------|
G#||-----------------------------------------|--8--7--5--0--8-10-8--7-----|
C#||--0--0--0--10--0--0--10--12--0--0--0--0--|-------------------------8--|


     PM      PM PM       PM PM       PM PM PM PM    PM PM    PM PM         
  E  S  S E  S  S  E  E  S  S  E     S  S  S  S  E  S  S  E  S  S  S S E   
----------------------------------|---------------------------------------|
----------------------------------|---------------------------------------|
----------------------------------|---------------------------------------|
----------------------------------|---------------------------------------|
----------7--------7--8-----------|---------------------------------------|
--L--8--8-8--8--8--8--8--8--8--7--|--7--7--7--7--7--7--7--5--5--5--3-5-3--|


     PM PM     PM PM         PM PM PM PM                               
  E  S  S   E  S  S   E   E  S  S  S  S     S S E  E  E   E  E  E  E   
-----------------------------------------|----------------------------|
-----------------------------------------|----------------------------|
-----------------------------------------|----------------------------|
-----------------------------------------|----------------------------|
-----------------------------------------|--7-8-7--5--0--10--8--7-----|
--0--0--0--10--0--0--10--12--0--0--0--0--|-------------------------8--|


     PM      PM PM       PM PM PM PM       PM PM PM PM    PM PM PM PM        
  E  S  S E  S  S  E  E  S  S  S  S     E  S  S  S  S  E  S  S  S  S  E  E   
-------------------------------------|--------------------------------------|
-------------------------------------|--------------------------------------|
-------------------------------------|--------------------------------------|
-------------------------------------|--3--------------3--------------3--0--|
----------7--------7--8--------------|--3--------------3--------------3--0--|
--L--8--8-8--8--8--8--8--0--0--0--0--|--3--0--0--0--0--3--0--0--0--0--3--0--|


     PM PM     PM PM         PM PM PM PM                               
  E  S  S   E  S  S   E   E  S  S  S  S     E  E  E  E  S  S E  E  E   
-----------------------------------------|----------------------------|
-----------------------------------------|----------------------------|
-----------------------------------------|----------------------------|
--L--------------------------------------|----------------------------|
--L--------------------------------------|--8--7--5--0--8-10-8--7-----|
--L--0--0--10--0--0--10--12--0--0--0--0--|-------------------------8--|


     PM      PM PM       PM PM       PM PM PM PM    PM PM    PM PM         
  E  S  S E  S  S  E  E  S  S  E     S  S  S  S  E  S  S  E  S  S  S S E   
----------------------------------|---------------------------------------|
----------------------------------|---------------------------------------|
----------------------------------|---------------------------------------|
----------------------------------|---------------------------------------|
----------7--------7--8-----------|---------------------------------------|
--L--8--8-8--8--8--8--8--8--8--7--|--7--7--7--7--7--7--7--5--5--5--5-3-0--|


     PM PM     PM PM         PM PM PM PM                               
  E  S  S   E  S  S   E   E  S  S  S  S     S S E  E  E   E  E  E  E   
-----------------------------------------|----------------------------|
-----------------------------------------|----------------------------|
-----------------------------------------|----------------------------|
-----------------------------------------|----------------------------|
-----------------------------------------|--7-8-7--5--0--10--8--7-----|
--L--0--0--10--0--0--10--12--0--0--0--0--|-------------------------8--|


     PM      PM PM       PM PM PM PM  
  E  S  S E  S  S  E  E  S  S  S  S   
-------------------------------------|
-------------------------------------|
-------------------------------------|
-------------------------------------|
----------7--------7--8--------------|
--L--8--8-8--8--8--8--8--0--0--0--0--|


       PM PM PM PM      PM PM PM PM PM PM                 PM PM PM PM  
   S S S  S  S  S   S S S  S  S  S  S  S  E     Q    Q    E  E  E  E   
---------------------------------------------|------------------------|
---------------------------------------------|------------------------|
---------------------------------------------|------------------------|
------------------------------------------0--|--L----0----0--0--0--0--|
------------------------------------------0--|--L----0----------------|
--10-7-0--0--0--0--10-7-0--0--0--0--0--0--0--|--L----0----------------|


  PM PM PM PM PM PM PM                 PM PM PM PM  
  E  E  E  E  E  E  E  E     Q    Q    E  E  E  E   
--------------------------|------------------------|
--------------------------|------------------------|
--------------------------|------------------------|
--0--0--0--0--0--0--0--0--|--L----0----0--0--0--0--|
-----------------------0--|--L----0----------------|
-----------------------0--|--L----0----------------|


                                         PM PM PM PM  
  S S E  E  E   E  E  E  E     Q    Q    E  E  E  E   
----------------------------|------------------------|
----------------------------|------------------------|
----------------------------|------------------------|
-------------------------0--|--L----0----0--0--0--0--|
--7-8-7--5--0--10--8--7--0--|--L----0----------------|
-------------------------0--|--L----0----------------|


  PM PM PM PM PM PM PM PM                                                     
  E  E  E  E  E  E  E  E     Q    Q    Q    Q        Q     Q     E  E  E  E   
--------------------------|----------------------|---------------------------|
--------------------------|----------------------|---------------------------|
--------------------------|----------------------|---------------------------|
--0--0--0--0--0--0--0--0--|--8----8--------------|--10----10--------------0--|
--------------------------|--8----8--------------|--10----10----10--8--7--0--|
--------------------------|--8----8--------------|--10----10--------------0--|


  Q    Q    E  E  E  E      E  E  Q     E  E  E  E     Q    Q    E  E  E  E   
-------------------------|--------------------------|------------------------|
-------------------------|--------------------------|------------------------|
-------------------------|--------------------------|------------------------|
--L----0----3------------|--------------------3--0--|--L----0----------------|
--L----0-------5--3--5~--|--L-----5~----1--0-----0--|--L----0----------------|
--L----0-----------------|-----------------------0--|--L----0----------------|


  S S E  E  E   E  E  E  E     Q    Q    E  E  E  E    
----------------------------|-------------------------|
----------------------------|-------------------------|
----------------------------|-------------------------|
-------------------------0--|--L----0----3------------|
--7-8-7--5--0--10--8--7--0--|--L----0-------5--3--5~--|
-------------------------0--|--L----0-----------------|


  E  E  Q     E  E  E  E     Q    Q    Q    Q        Q     Q    S  S E  E  E   
--------------------------|----------------------|----------------------------|
--------------------------|----------------------|----------------------------|
--------------------------|----------------------|----------------------------|
--------------------3--3--|--8----8--------------|--10----10---------------8--|
--L-----5~----1--0--------|--8----8--------------|--10----10----8-10-8--7--8--|
--------------------------|--8----8--------------|--10----10---------------8--|


     PM     PM                       PM  PM  PM  PM  PM  PM  PM  
  E  E   E  E   E   E  E   E     E   E   E   E   E   E   E   E   
------------------------------|---------------------------------|
------------------------------|---------------------------------|
------------------------------|---------------------------------|
--------------------------10--|--L--10--10--10--10--10--10--10--|
--------12-----12--10--8--10--|--L--10--10--10--10--10--10--10--|
--L--8------8-------------10--|--L--10--10--10--10--10--10--10--|


  E  E  E  E  E  E  E  E     E  E  E  E  E  E  E  E   
--------------------------|--------------------------|
--------------------------|--------------------------|
--7--7--7--7--7--7--7--5--|--L--5--5--5--5--5--5--3--|
--7--7--7--7--7--7--7--5--|--L--5--5--5--5--5--5--3--|
--5--5--5--5--5--5--5--3--|--L--3--3--3--3--3--3--1--|
--------------------------|--------------------------|


  E  E  E  E  E  E  E  E     E  E  E  E  E  E  E  E   
--------------------------|--------------------------|
--------------------------|--------------------------|
--L--3--3--3--3--3--3--3--|--5--5--5--5--5--5--5--5--|
--L--3--3--3--3--3--3--3--|--5--5--5--5--5--5--5--5--|
--L--1--1--1--1--1--1--1--|--3--3--3--3--3--3--3--3--|
--------------------------|--------------------------|


  E  E  E  E  E  E  E  E     E  E  E  E  E  E  E  E   
--------------------------|--------------------------|
--------------------------|--------------------------|
--7--7--7--7--7--7--7--5--|--L--5--5--5--5--5--5-----|
--7--7--7--7--7--7--7--5--|--L--5--5--5--5--5--5--5--|
--5--5--5--5--5--5--5--3--|--L--3--3--3--3--3--3--5--|
--------------------------|-----------------------5--|


  E  E  E  E  E  E  E  E     E  E  E  Q    E  E  E     E  E  E  E  E  E  E  E   
--------------------------|-------------------------|--------------------------|
--------------------------|-------------------------|--------------------------|
--------------------------|--3--3--3--5----5--5--5--|--7--7--7--7--7--7--7--7--|
--L--5--5--5--5--5--5--5--|--3--3--3--5----5--5--5--|--7--7--7--7--7--7--7--7--|
--L--5--5--5--5--5--5--5--|--1--1--1--3----3--3--3--|--5--5--5--5--5--5--5--5--|
--L--5--5--5--5--5--5--5--|-------------------------|--------------------------|


  E  E  E  E  E  E  E  E     E  E  E  E  E  E  E  E   
--------------------------|--------------------------|
--------------------------|--------------------------|
--5--5--5--5--5--5--5--5--|--3--3--3--3--3--3--3--3--|
--5--5--5--5--5--5--5--5--|--3--3--3--3--3--3--3--3--|
--3--3--3--3--3--3--3--3--|--1--1--1--1--1--1--1--1--|
--------------------------|--------------------------|


  E  E  E  E  E  E  E  E     E  E  E  E  E  E  E  E   
--------------------------|--------------------------|
--------------------------|--------------------------|
--5--5--5--5--5--5--5--5--|--3--3--3--3--3--3--3--3--|
--5--5--5--5--5--5--5--5--|--3--3--3--3--3--3--3--3--|
--3--3--3--3--3--3--3--3--|--1--1--1--1--1--1--1--1--|
--------------------------|--------------------------|


  E  E  E  E  E  E  E  E     E  E  E  E  E  E  E  E   
--------------------------|--------------------------|
--------------------------|--------------------------|
--3--3--3--3--3--3--3--3--|--5--5--5--5--5--5--5--5--|
--3--3--3--3--3--3--3--3--|--5--5--5--5--5--5--5--5--|
--1--1--1--1--1--1--1--1--|--3--3--3--3--3--3--3--3--|
--------------------------|--------------------------|


                                 PM    PM             
    E   E   Q    Q    Q       E  E  E  E  E  Q    E   
---------------------------|-------------------------|
---------------------------|-------------------------|
---------------------------|-------------------------|
--/12---L\-----------------|-------------------------|
--/12---L\-----------------|--------7-----7--8----L--|
--/12---L\-----------------|--0--0-----0-------------|


             PM PM PM PM PM PM PM       PM    PM              
  Q     Q    E  S  S  S  S  S  S     E  E  E  E  E  Q    E    
----------------------------------|--------------------------|
----------------------------------|--------------------------|
----------------------------------|--------------------------|
----------------------------------|--------------------------|
--L\------------------------------|--------7-----7--8----L\--|
-------------0--0--0--0--0--0--0--|--0--0-----0--------------|


                          PM    PM             
  H        H           E  E  E  E  E  Q    E   
--------------------|-------------------------|
--------------------|-------------------------|
--3--------5--------|-------------------------|
--3--------5--------|-------------------------|
--1--------3--------|--------7-----7--8----L--|
--------------------|--0--0-----0-------------|


             PM PM PM PM PM PM PM       PM    PM              
  Q     Q    E  S  S  S  S  S  S     E  E  E  E  E  Q    E    
----------------------------------|--------------------------|
----------------------------------|--------------------------|
----------------------------------|--------------------------|
----------------------------------|--------------------------|
--L\------------------------------|--------7-----7--8----L\--|
-------------0--0--0--0--0--0--0--|--0--0-----0--------------|


  H        H           W                   W                 
--------------------|-------------------|-------------------|
--------------------|-------------------|-------------------|
--3--------5--------|-------------------|-------------------|
--3--------5--------|--0----------------|--L----------------|
--1--------3--------|-------------------|-------------------|
--------------------|-------------------|-------------------|


  W                   W                 
-------------------|-------------------|
-------------------|-------------------|
-------------------|-------------------|
-------------------|-------------------|
--1----------------|--0----------------|
-------------------|-------------------|


     PM PM     PM PM         PM PM PM PM                               
  E  S  S   E  S  S   E   E  S  S  S  S     S S E  E  E   E  E  E  E   
-----------------------------------------|----------------------------|
-----------------------------------------|----------------------------|
-----------------------------------------|----------------------------|
-----------------------------------------|----------------------------|
-----------------------------------------|--7-8-7--5--0--10--8--7--5--|
--0--0--0--10--0--0--10--12--0--0--0--0--|----------------------------|


     PM      PM PM       PM PM PM PM  
  E  S  S E  S  S  E  E  S  S  S  S   
-------------------------------------|
-------------------------------------|
-------------------------------------|
-------------------------------------|
----------7--------7--8--------------|
--8--8--8-8--8--8--8--8--0--0--0--0--|


   Pickslide                                                                    
   T         T  T  T  T  T  T  T  T  T  T  T  T  T  T  T  T  T  T  T  T T T T T 
--30--------29-28-27-26-25-24-23-22-21-20-19-18-17-16-15-14-13-12-11-10-9-8-7-6-
--30--------29-28-27-26-25-24-23-22-21-20-19-18-17-16-15-14-13-12-11-10-9-8-7-6-
--------------------------------------------------------------------------------
--------------------------------------------------------------------------------
--------------------------------------------------------------------------------
--------------------------------------------------------------------------------


     PM PM    PM PM       PM PM PM PM                               
  E  S  S  E  S  S  E  E  S  S  S  S     E  E  E  E  S S E   E  E   
--------------------------------------|----------------------------|
--------------------------------------|----------------------------|
--------------------------------------|----------------------------|
--L-----------------------------------|--7--5--------7-8-7---------|
--L--------7--------7--8--------------|--------8--5---------10-----|
--L--0--0-----0--0--------0--0--0--0--|-------------------------8--|


     PM      PM PM       PM PM       PM PM PM PM    PM PM    PM PM        
  E  S  S E  S  S  E  E  S  S  E     S  S  S  S  E  S  S  E  S  S  E  E   
----------------------------------|--------------------------------------|
----------------------------------|--------------------------------------|
----------------------------------|--------------------------------------|
----------------------------------|--------------------------------------|
----------7--------7--8-----------|--------------------------------------|
--L--8--8-8--8--8--8--8--8--8--7--|--7--7--7--7--7--7--7--5--5--5--5--3--|


     PM PM    PM PM       PM PM PM PM                               
  E  S  S  E  S  S  E  E  S  S  S  S     S S E  E  E  E  E   E  E   
--------------------------------------|----------------------------|
--------------------------------------|----------------------------|
--------------------------------------|----------------------------|
--------------------------------------|--5-7-5--------8--7---------|
-----------7--------7--8--------------|---------8--5--------10--8--|
--0--0--0-----0--0--------0--0--0--0--|----------------------------|


     PM      PM PM       PM PM PM PM  
  E  S  S E  S  S  E  E  S  S  S  S   
-------------------------------------|
-------------------------------------|
-------------------------------------|
--8----------------------------------|
--8-------7--------7--8--------------|
--8--8--8-8--8--8--8--8--0--0--0--0--|


       PM PM PM PM      PM PM PM PM PM PM PM PM       PM     PM                
   S S S  S  S  S   S S S  S  S  S  S  S  S  S     E  E   E  E   E   E  E  E   
------------------------------------------------|-----------------------------|
------------------------------------------------|-----------------------------|
------------------------------------------------|-----------------------------|
------------------------------------------------|--8--------------------------|
------------------------------------------------|--8-----12-----12--10--8--7--|
--10-7-0--0--0--0--10-7-0--0--0--0--0--0--0--0--|--8--8------8----------------|


   PM  PM  PM  PM  PM  PM  PM  PM                             
   E   E   E   E   E   E   E   E     E  E  E  E  E  E  E  E   
----------------------------------|--------------------------|
----------------------------------|--------------------------|
----------------------------------|--7--7--7--7--7--7--7--5--|
--10--10--10--10--10--10--10--10--|--7--7--7--7--7--7--7--5--|
--10--10--10--10--10--10--10--10--|--5--5--5--5--5--5--5--3--|
--10--10--10--10--10--10--10--10--|--------------------------|


  E  E  E  E  E  E  E  E     E  E  E  E  E  E  E  E   
--------------------------|--------------------------|
--------------------------|--------------------------|
--L--5--5--5--5--5--5--3--|--L--3--3--3--3--3--3--3--|
--L--5--5--5--5--5--5--3--|--L--3--3--3--3--3--3--3--|
--L--3--3--3--3--3--3--1--|--L--1--1--1--1--1--1--1--|
--------------------------|--------------------------|


  E  E  E  E  E  E  E  E     E  E  E  E  E  E  E  E   
--------------------------|--------------------------|
--------------------------|--------------------------|
--5--5--5--5--5--5--5--5--|--7--7--7--7--7--7--7--5--|
--5--5--5--5--5--5--5--5--|--7--7--7--7--7--7--7--5--|
--3--3--3--3--3--3--3--3--|--5--5--5--5--5--5--5--3--|
--------------------------|--------------------------|


  E  E  E  E  E  E  E  E     E  E  E  E  E  E  E  E     E  E  E  Q    E  E  E   
--------------------------|--------------------------|-------------------------|
--------------------------|--------------------------|-------------------------|
--L--5--5--5--5--5--5-----|--------------------------|--3--3--3--5----5--5--5--|
--L--5--5--5--5--5--5--5--|--L--5--5--5--5--5--5--5--|--3--3--3--5----5--5--5--|
--L--3--3--3--3--3--3--5--|--L--5--5--5--5--5--5--5--|--1--1--1--3----3--3--3--|
-----------------------5--|--L--5--5--5--5--5--5--5--|-------------------------|


  E  E  E  E  E  E  E  E     E  E  E  E  E  E  E  E   
--------------------------|--------------------------|
--------------------------|--------------------------|
--7--7--7--7--7--7--7--7--|--5--5--5--5--5--5--5--5--|
--7--7--7--7--7--7--7--7--|--5--5--5--5--5--5--5--5--|
--5--5--5--5--5--5--5--5--|--3--3--3--3--3--3--3--3--|
--------------------------|--------------------------|


  E  E  E  E  E  E  E  E     E  E  E  E  E  E  E  E   
--------------------------|--------------------------|
--------------------------|--------------------------|
--3--3--3--3--3--3--3--3--|--5--5--5--5--5--5--5--5--|
--3--3--3--3--3--3--3--3--|--5--5--5--5--5--5--5--5--|
--1--1--1--1--1--1--1--1--|--3--3--3--3--3--3--3--3--|
--------------------------|--------------------------|


  E  E  E  E  E  E  E  E     E  E  E  E  E  E  E  E   
--------------------------|--------------------------|
--------------------------|--------------------------|
--3--3--3--3--3--3--3--3--|--3--3--3--3--3--3--3--3--|
--3--3--3--3--3--3--3--3--|--3--3--3--3--3--3--3--3--|
--1--1--1--1--1--1--1--1--|--1--1--1--1--1--1--1--1--|
--------------------------|--------------------------|


  E  E  E  E  E  E  E  E       E   E   Q    Q    Q     
--------------------------|---------------------------|
--------------------------|---------------------------|
--5--5--5--5--5--5--5--5--|---------------------------|
--5--5--5--5--5--5--5--5--|--/12---L\-----------------|
--3--3--3--3--3--3--3--3--|--/12---L\-----------------|
--------------------------|--/12---L\-----------------|


     PM    PM                          PM PM PM PM PM PM PM  
  E  E  E  E  E  Q    E     Q     Q    E  S  S  S  S  S  S   
-------------------------|----------------------------------|
-------------------------|----------------------------------|
-------------------------|----------------------------------|
-------------------------|----------------------------------|
--------7-----7--8----L--|--L\------------------------------|
--0--0-----0-------------|-------------0--0--0--0--0--0--0--|


     PM    PM                                        PM    PM             
  E  E  E  E  E  Q    E      H        H           E  E  E  E  E  Q    E   
--------------------------|--------------------|-------------------------|
--------------------------|--------------------|-------------------------|
--------------------------|--3--------5--------|-------------------------|
--------------------------|--3--------5--------|-------------------------|
--------7-----7--8----L\--|--1--------3--------|--------7-----7--8----L--|
--0--0-----0--------------|--------------------|--0--0-----0-------------|


             PM PM PM PM PM PM PM       PM    PM              
  Q     Q    E  S  S  S  S  S  S     E  E  E  E  E  Q    E    
----------------------------------|--------------------------|
----------------------------------|--------------------------|
----------------------------------|--------------------------|
----------------------------------|--------------------------|
--L\------------------------------|--------7-----7--8----L\--|
-------------0--0--0--0--0--0--0--|--0--0-----0--------------|


                          PM PM     PM PM         PM PM PM PM  
  H        H           E  S  S   E  S  S   E   E  S  S  S  S   
--------------------|-----------------------------------------|
--------------------|-----------------------------------------|
--3--------5--------|-----------------------------------------|
--3--------5--------|-----------------------------------------|
--1--------3--------|-----------------------------------------|
--------------------|--0--0--0--10--0--0--10--12--0--0--0--0--|


      PM PM         PM PM PM PM             PM PM    PM PM       PM PM PM PM  
   E  S  S   E   E  S  S  S  S  E  E     E  S  S  E  S  S  E  E  S  S  S  S   
--------------------------------------|--------------------------------------|
--------------------------------------|--------------------------------------|
--------------------------------------|--------------------------------------|
--------------------------------------|--------------------------------------|
--------------------------------5--7--|-----------7--------7--8--------------|
--10--0--0--10--12--0--0--0--0--------|--8--8--8--8--8--8--8--8--8--8--8--8--|


     PM PM PM PM    PM PM PM PM        
  E  S  S  S  S  E  S  S  S  S  E  E   
--------------------------------------|
--------------------------------------|
--------------------------------------|
--3--------------3--------------3--3--|
--3--------------3--------------3--3--|
--3--0--0--0--0--3--0--0--0--0--3--3--|


     PM PM     PM PM         PM PM PM PM  
  E  S  S   E  S  S   E   E  S  S  S  S   
-----------------------------------------|
-----------------------------------------|
-----------------------------------------|
-----------------------------------------|
-----------------------------------------|
--0--0--0--10--0--0--10--12--0--0--0--0--|


      PM PM         PM PM PM PM             PM PM    PM PM       PM PM PM PM  
   E  S  S   E   E  S  S  S  S  E  E     E  S  S  E  S  S  E  E  S  S  S  S   
--------------------------------------|--------------------------------------|
--------------------------------------|--------------------------------------|
--------------------------------------|--------------------------------------|
--------------------------------------|--------------------------------------|
--------------------------------5--7--|-----------7--------7--8--------------|
--10--0--0--10--12--0--0--0--0--------|--8--8--8--8--8--8--8--8--8--8--8--8--|


     PM PM PM PM    PM PM PM PM        
  E  S  S  S  S  E  S  S  S  S  E  E   
--------------------------------------|
--------------------------------------|
--------------------------------------|
--3--------------3--------------3--3--|
--3--------------3--------------3--3--|
--3--0--0--0--0--3--0--0--0--0--3--3--|


     PM PM     PM PM         PM PM PM PM  
  E  S  S   E  S  S   E   E  S  S  S  S   
-----------------------------------------|
-----------------------------------------|
-----------------------------------------|
-----------------------------------------|
-----------------------------------------|
--0--0--0--10--0--0--10--12--0--0--0--0--|


      PM PM         PM PM PM PM             PM PM    PM PM       PM PM PM PM  
   E  S  S   E   E  S  S  S  S  E  E     E  S  S  E  S  S  E  E  S  S  S  S   
--------------------------------------|--------------------------------------|
--------------------------------------|--------------------------------------|
--------------------------------------|--------------------------------------|
--------------------------------------|--------------------------------------|
--------------------------------5--7--|-----------7--------7--8--------------|
--10--0--0--10--12--0--0--0--0--------|--8--8--8--8--8--8--8--8--8--8--8--8--|


     PM PM PM PM    PM PM PM PM        
  E  S  S  S  S  E  S  S  S  S  E  E   
--------------------------------------|
--------------------------------------|
--------------------------------------|
--3--------------3--------------3--3--|
--3--------------3--------------3--3--|
--3--0--0--0--0--3--0--0--0--0--3--3--|


     PM PM     PM PM         PM PM PM PM  
  E  S  S   E  S  S   E   E  S  S  S  S   
-----------------------------------------|
-----------------------------------------|
-----------------------------------------|
-----------------------------------------|
-----------------------------------------|
--0--0--0--10--0--0--10--12--0--0--0--0--|


      PM PM         PM PM PM PM             PM PM    PM PM       PM PM PM PM  
   E  S  S   E   E  S  S  S  S  E  E     E  S  S  E  S  S  E  E  S  S  S  S   
--------------------------------------|--------------------------------------|
--------------------------------------|--------------------------------------|
--------------------------------------|--------------------------------------|
--------------------------------------|--------------------------------------|
--------------------------------5--7--|-----------7--------7--8--------------|
--10--0--0--10--12--0--0--0--0--------|--8--8--8--8--8--8--8--8--8--8--8--8--|


     PM PM PM PM    PM PM PM PM             PM     PM                 
  E  S  S  S  S  E  S  S  S  S  E  E     E  E   E  E   E   E  E   E   
--------------------------------------|------------------------------|
--------------------------------------|------------------------------|
--------------------------------------|------------------------------|
--3--------------3--------------3--3--|--8-----------------------10--|
--3--------------3--------------3--3--|--8-----12-----12--10--8--10--|
--3--0--0--0--0--3--0--0--0--0--3--3--|--8--8------8-------------10--|


  E   E   E   E   E   E   E   E     E  E  E  E  E  E  E  E   
---------------------------------|--------------------------|
---------------------------------|--------------------------|
---------------------------------|--7--7--7--7--7--7--7--5--|
--L--10--10--10--10--10--10--10--|--7--7--7--7--7--7--7--5--|
--L--10--10--10--10--10--10--10--|--5--5--5--5--5--5--5--3--|
--L--10--10--10--10--10--10--10--|--------------------------|


  E  E  E  E  E  E  E  E     E  E  E  E  E  E  E  E   
--------------------------|--------------------------|
--------------------------|--------------------------|
--L--5--5--5--5--5--5--3--|--L--3--3--3--3--3--3--3--|
--L--5--5--5--5--5--5--3--|--L--3--3--3--3--3--3--3--|
--L--3--3--3--3--3--3--1--|--L--1--1--1--1--1--1--1--|
--------------------------|--------------------------|


  E  E  E  E  E  E  E  E     E  E  E  E  E  E  E  E   
--------------------------|--------------------------|
--------------------------|--------------------------|
--5--5--5--5--5--5--5--5--|--7--7--7--7--7--7--7--5--|
--5--5--5--5--5--5--5--5--|--7--7--7--7--7--7--7--5--|
--3--3--3--3--3--3--3--3--|--5--5--5--5--5--5--5--3--|
--------------------------|--------------------------|


  E  E  E  E  E  E  E  E     E  E  E  E  E  E  E  E     E  E  E  Q    E  E  E   
--------------------------|--------------------------|-------------------------|
--------------------------|--------------------------|-------------------------|
--L--5--5--5--5--5--5-----|--------------------------|--3--3--3--5----5--5--5--|
--L--5--5--5--5--5--5--5--|--L--5--5--5--5--5--5--5--|--3--3--3--5----5--5--5--|
--L--3--3--3--3--3--3--5--|--L--5--5--5--5--5--5--5--|--1--1--1--3----3--3--3--|
-----------------------5--|--L--5--5--5--5--5--5--5--|-------------------------|


  E  E  E  E  E  E  E  E     E  E  E  E  E  E  E  E   
--------------------------|--------------------------|
--------------------------|--------------------------|
--7--7--7--7--7--7--7--7--|--5--5--5--5--5--5--5--5--|
--7--7--7--7--7--7--7--7--|--5--5--5--5--5--5--5--5--|
--5--5--5--5--5--5--5--5--|--3--3--3--3--3--3--3--3--|
--------------------------|--------------------------|


  E  E  E  E  E  E  E  E     E  E  E  E  E  E  E  E   
--------------------------|--------------------------|
--------------------------|--------------------------|
--3--3--3--3--3--3--3--3--|--5--5--5--5--5--5--5--5--|
--3--3--3--3--3--3--3--3--|--5--5--5--5--5--5--5--5--|
--1--1--1--1--1--1--1--1--|--3--3--3--3--3--3--3--3--|
--------------------------|--------------------------|


  E  E  E  E  E  E  E  E     E  E  E  E  E  E  E  E   
--------------------------|--------------------------|
--------------------------|--------------------------|
--3--3--3--3--3--3--3--3--|--3--3--3--3--3--3--3--3--|
--3--3--3--3--3--3--3--3--|--3--3--3--3--3--3--3--3--|
--1--1--1--1--1--1--1--1--|--1--1--1--1--1--1--1--1--|
--------------------------|--------------------------|


  E  E  E  E  E  E  E  E       E   E   Q    Q    Q     
--------------------------|---------------------------|
--------------------------|---------------------------|
--5--5--5--5--5--5--5--5--|---------------------------|
--5--5--5--5--5--5--5--5--|--/12---L\-----------------|
--3--3--3--3--3--3--3--3--|--/12---L\-----------------|
--------------------------|--/12---L\-----------------|


     PM    PM                PM PM PM PM PM PM PM PM PM PM PM PM PM PM  
  E  E  E  E  E  Q    E      E  S  S  S  S  S  S  E  S  S  S  S  S  S   
--------------------------|--------------------------------------------|
--------------------------|--------------------------------------------|
--------------------------|--------------------------------------------|
--------------------------|--------------------------------------------|
--------7-----7--8----L\--|--------------------------------------------|
--0--0-----0--------------|--0--0--0--0--0--0--0--0--0--0--0--0--0--0--|


     PM    PM                                        PM    PM              
  E  E  E  E  E  Q    E      H        H           E  E  E  E  E  Q    E    
--------------------------|--------------------|--------------------------|
--------------------------|--------------------|--------------------------|
--------------------------|--3-----------------|--------------------------|
--------------------------|--3--------3--------|--------------------------|
--------7-----7--8----L\--|--1--------3--------|--------7-----7--8----L\--|
--0--0-----0--------------|-----------3--------|--0--0-----0--------------|


  PM PM PM PM PM PM PM PM PM PM PM PM PM PM       PM    PM              
  E  S  S  S  S  S  S  E  S  S  S  S  S  S     E  E  E  E  E  Q    E    
--------------------------------------------|--------------------------|
--------------------------------------------|--------------------------|
--------------------------------------------|--------------------------|
--------------------------------------------|--------------------------|
--------------------------------------------|--------7-----7--8----L\--|
--0--0--0--0--0--0--0--0--0--0--0--0--0--0--|--0--0-----0--------------|


  H        Q    E  E     W                   W                 
----------------------|-------------------|-------------------|
----------------------|-------------------|-------------------|
--3-------------------|-------------------|-------------------|
--3--------3----L--0--|--L----------------|--L----------------|
--1--------3----L--0--|--L----------------|--L----------------|
-----------3----L--0--|--L----------------|--L----------------|


  W                   W                  
-------------------|-------------------||
-------------------|-------------------||
-------------------|-------------------||
--L----------------|--L----------------||
--L----------------|--L----------------||
--L----------------|--L----------------||


Guitar 2


                                         PM PM     PM PM         PM PM PM PM  
                                      E  S  S   E  S  S   E   E  S  S  S  S   
D#||-------|-------|-------|-------|-----------------------------------------|
A#||-------|-------|-------|-------|-----------------------------------------|
F#||-------|-------|-------|-------|-----------------------------------------|
C#||-------|-------|-------|-------|-----------------------------------------|
G#||-------|-------|-------|-------|-----------------------------------------|
C#||-------|-------|-------|-------|--0--0--0--10--0--0--10--12--0--0--0--0--|


                                  PM      PM PM       PM PM PM PM  
  S S E  E  E   E  E  E  E     E  S  S E  S  S  E  E  S  S  S  S   
----------------------------|-------------------------------------|
----------------------------|-------------------------------------|
----------------------------|-------------------------------------|
----------------------------|-------------------------------------|
--7-8-7--5--0--10--8--7-----|----------7--------7--8--------------|
-------------------------8--|--L--8--8-8--8--8--8--8--0--0--0--0--|


     PM PM PM PM    PM PM PM PM             PM PM    PM PM       PM PM PM PM  
  E  S  S  S  S  E  S  S  S  S  E  E     E  S  S  E  S  S  E  E  S  S  S  S   
--------------------------------------|--------------------------------------|
--------------------------------------|--------------------------------------|
--------------------------------------|--------------------------------------|
--3--------------3--------------3--0--|--L-----------------------------------|
--3--------------3--------------3--0--|--L--------7--------7--8--------------|
--3--0--0--0--0--3--0--0--0--0--3--0--|--L--0--0-----0--0--------0--0--0--0--|


                                  PM      PM PM       PM PM     
  E  E  E  E  S S E   E  E     E  S  S E  S  S  E  E  S  S  E   
----------------------------|----------------------------------|
----------------------------|----------------------------------|
----------------------------|----------------------------------|
--7--5--------7-8-7---------|----------------------------------|
--------8--5---------10-----|----------7--------7--8-----------|
-------------------------8--|--L--8--8-8--8--8--8--8--8--8--7--|


  PM PM PM PM    PM PM    PM PM              PM PM    PM PM       PM PM PM PM  
  S  S  S  S  E  S  S  E  S  S  S S E     E  S  S  E  S  S  E  E  S  S  S  S   
---------------------------------------|--------------------------------------|
---------------------------------------|--------------------------------------|
---------------------------------------|--------------------------------------|
---------------------------------------|--L-----------------------------------|
---------------------------------------|--L--------7--------7--8--------------|
--7--7--7--7--7--7--7--5--5--5--5-3-0--|--L--0--0-----0--0--------0--0--0--0--|


                                  PM      PM PM       PM PM PM PM  
  S S E  E  E  E  E   E  E     E  S  S E  S  S  E  E  S  S  S  S   
----------------------------|-------------------------------------|
----------------------------|-------------------------------------|
----------------------------|-------------------------------------|
--5-7-5--------8--7---------|-------------------------------------|
---------8--5--------10-----|----------7--------7--8--------------|
-------------------------8--|--L--8--8-8--8--8--8--8--0--0--0--0--|


       PM PM PM PM      PM PM PM PM PM PM                              
   S S S  S  S  S   S S S  S  S  S  S  S  E     Q    Q    E  E  E  E   
---------------------------------------------|------------------------|
---------------------------------------------|------------------------|
---------------------------------------------|------------------------|
------------------------------------------0--|--L----0----------------|
------------------------------------------0--|--L----0----------------|
--10-7-0--0--0--0--10-7-0--0--0--0--0--0--0--|--L----0----------------|


  E  E  E  E  E  E  E  E     Q    Q    E  E  E  E   
--------------------------|------------------------|
--------------------------|------------------------|
--------------------------|------------------------|
-----------------------0--|--L----0----------------|
-----------------------0--|--L----0----------------|
-----------------------0--|--L----0----------------|


  S S E  E  E   E  E  E  E     Q    Q    E  E  E  E   
----------------------------|------------------------|
----------------------------|------------------------|
----------------------------|------------------------|
-------------------------0--|--L----0----------------|
--7-8-7--5--0--10--8--7--0--|--L----0----------------|
-------------------------0--|--L----0----------------|


  E  E  E  E  E  E  E  E     Q    Q    Q    Q        Q     Q    E  E   E  E   
--------------------------|----------------------|---------------------------|
--------------------------|----------------------|---------------------------|
--------------------------|----------------------|---------------------------|
--------------------------|--8----8--------------|--10----10----8--7------0--|
--------------------------|--8----8--------------|--10----10----------10--0--|
--------------------------|--8----8--------------|--10----10--------------0--|


  Q    Q    E  E  E  E     E  E  E  E  E  E  E  E     Q    Q    E  E  Q     
------------------------|--------------------------|-----------------------|
------------------------|--------------------------|-----------------------|
------------------------|--------------------------|-----------------------|
--L----0----------------|-----------------------0--|--L----0----3----------|
--L----0----------------|-----------------------0--|--L----0-------5--3----|
--L----0----------------|-----------------------0--|--L----0---------------|


  S S E  E  E  E  E   E  E     Q    Q    E  E  E  E   
----------------------------|------------------------|
----------------------------|------------------------|
----------------------------|------------------------|
--5-7-5--------8--7------0--|--L----0----------------|
---------8--5--------10--0--|--L----0----------------|
-------------------------0--|--L----0----------------|


  E  E  E  E  E  E  E  E     Q    Q    E  E  E  E   
--------------------------|------------------------|
--------------------------|------------------------|
--------------------------|------------3-----------|
--------------------------|--8----8----------------|
--------------------------|--8----8-------5--3--5--|
--------------------------|--8----8----------------|


                                  PM    PM               
   Q     Q    S S E   E  E     E  E  E  E  E  E  E   E   
----------------------------|---------------------------|
----------------------------|---------------------------|
----------------------------|---------------------------|
--10----10----7-8-7------8--|--L--------------------10--|
--10----10-----------10--8--|--L-----8-----8--7--5--10--|
--10----10---------------8--|--L--8-----8-----------10--|


      PM  PM  PM  PM  PM  PM  PM                                 
  E   E   E   E   E   E   E   E      Q     Q     E   E   E   E   
---------------------------------|--13----10------------13--12--|
---------------------------------|--------------10--13----------|
---------------------------------|------------------------------|
--L--10--10--10--10--10--10--10--|------------------------------|
--L--10--10--10--10--10--10--10--|------------------------------|
--L--10--10--10--10--10--10--10--|------------------------------|


  Q     Q    E  E   E   E     Q     H        Q     
--L-------------8--12--10--|--L-------------------|
-------13----8-------------|-------11--------L----|
---------------------------|----------------------|
---------------------------|----------------------|
---------------------------|----------------------|
---------------------------|----------------------|


   E   E   E   E   E   E   E   E      Q     Q     E   E   E   E   
------------------10------10--12--|--13----10------------13--12--|
--11--10--11--13------13----------|--------------10--13----------|
----------------------------------|------------------------------|
----------------------------------|------------------------------|
----------------------------------|------------------------------|
----------------------------------|------------------------------|


  Q     Q    E  E   E   E     Q     H        Q     
--L-------------8--12--10--|--L-------------------|
-------13----8-------------|-------11--------L----|
---------------------------|----------------------|
---------------------------|----------------------|
---------------------------|----------------------|
---------------------------|----------------------|


   E   E   E   Q     E   E   E      H         H            H         H         
--------------12----10------13--|--13--------10--------|--10--------13--------|
--11--10--11------------13------|----------------------|----------------------|
--------------------------------|----------------------|----------------------|
--------------------------------|----------------------|----------------------|
--------------------------------|----------------------|----------------------|
--------------------------------|----------------------|----------------------|


   W                    E   E   E   E   E   E   E  E   
--12----------------|---------------------------------|
--------------------|--13--11--10--11--10-------------|
--------------------|----------------------12--10--9--|
--------------------|---------------------------------|
--------------------|---------------------------------|
--------------------|---------------------------------|


   E   E   E   E   E   E   E   E      E   E   E   E   E   E   E   E   
------------------10----------12--|--13--12--10------10------10------|
--11--10--11--13------11--13------|--------------13------13------11--|
----------------------------------|----------------------------------|
----------------------------------|----------------------------------|
----------------------------------|----------------------------------|
----------------------------------|----------------------------------|


   E   E   E   E   E   E   E   E      E  E   Q    Q    Q     
--------------10--12------12--15--|--22--L\-----------------|
--13------13----------13----------|-------------------------|
------12--------------------------|-------------------------|
----------------------------------|-------------------------|
----------------------------------|-------------------------|
----------------------------------|-------------------------|


     PM     PM                            PM PM PM PM PM PM PM  
  E  E   E  E   E   Q    E     Q     Q    E  S  S  S  S  S  S   
----------------------------|----------------------------------|
----------------------------|----------------------------------|
----------------------------|----------------------------------|
----------------------------|----------------------------------|
----------------------------|----------------------------------|
--0--0--10--0--10--12----L--|--L\---------0--0--0--0--0--0--0--|


     PM     PM                                          PM     PM               
  E  E   E  E   E   Q    E      H        H           E  E   E  E   E   Q    E   
-----------------------------|--------------------|----------------------------|
-----------------------------|--------------------|----------------------------|
-----------------------------|--3--------5--------|----------------------------|
-----------------------------|--3--------5--------|----------------------------|
-----------------------------|--1--------3--------|----------------------------|
--0--0--10--0--10--12----L\--|--------------------|--0--0--10--0--10--12----L--|


             PM PM PM PM PM PM PM       PM     PM                
  Q     Q    E  S  S  S  S  S  S     E  E   E  E   E   Q    E    
----------------------------------|-----------------------------|
----------------------------------|-----------------------------|
----------------------------------|-----------------------------|
----------------------------------|-----------------------------|
----------------------------------|-----------------------------|
--L\---------0--0--0--0--0--0--0--|--0--0--10--0--10--12----L\--|


  H        H           S S S S S S S S S S S S S S S S  
--------------------|----------------------------------|
--------------------|----------------------------------|
--3--------5--------|----------------------------------|
--3--------5--------|--0---0---0---0---0---0---0---0---|
--1--------3--------|----------------------------------|
--------------------|----------------------------------|


  S S S S S S S S S S S S S S S S    S S S S S S S S S S S S S S S S  
----------------------------------|----------------------------------|
----------------------------------|----------------------------------|
----------------------------------|----------------------------------|
--0---0---0---0---0---0---0---0---|--0---0---0---0---0---0---0---0---|
----------------------------------|----------------------------------|
----------------------------------|----------------------------------|


                                        PM PM     PM PM         PM PM PM PM  
  S S S S S S S S S S S S S S S S    E  S  S   E  S  S   E   E  S  S  S  S   
----------------------------------|-----------------------------------------|
----------------------------------|-----------------------------------------|
----------------------------------|-----------------------------------------|
--0---0---0---0---0---0---0---0---|-----------------------------------------|
----------------------------------|-----------------------------------------|
----------------------------------|--0--0--0--10--0--0--10--12--0--0--0--0--|


                                  PM      PM PM       PM PM PM PM  
  S S E  E  E   E  E  E  E     E  S  S E  S  S  E  E  S  S  S  S   
----------------------------|-------------------------------------|
----------------------------|-------------------------------------|
----------------------------|-------------------------------------|
----------------------------|-------------------------------------|
--7-8-7--5--0--10--8--7--5--|----------7--------7--8--------------|
----------------------------|--8--8--8-8--8--8--8--8--0--0--0--0--|


                   Pickslide                                                    
  T T T T T T T T  T         T  T  T  T  T  T  T  T  T  T  T  T  T  T  T  T  T  
------------------30--------29-28-27-26-25-24-23-22-21-20-19-18-17-16-15-14-13-1
------------------30--------29-28-27-26-25-24-23-22-21-20-19-18-17-16-15-14-13-1
--------------------------------------------------------------------------------
--------------------------------------------------------------------------------
--------------------------------------------------------------------------------
--------------------------------------------------------------------------------


     PM PM    PM PM       PM PM PM PM                               
  E  S  S  E  S  S  E  E  S  S  S  S     E  E  E  E  S S E   E  E   
--------------------------------------|----------------------------|
--------------------------------------|----------------------------|
--------------------------------------|----------------------------|
--L-----------------------------------|--7--5--------7-8-7---------|
--L--------7--------7--8--------------|--------8--5---------10-----|
--L--0--0-----0--0--------0--0--0--0--|-------------------------8--|


     PM      PM PM       PM PM       PM PM PM PM    PM PM    PM PM        
  E  S  S E  S  S  E  E  S  S  E     S  S  S  S  E  S  S  E  S  S  E  E   
----------------------------------|--------------------------------------|
----------------------------------|--------------------------------------|
----------------------------------|--------------------------------------|
----------------------------------|--------------------------------------|
----------7--------7--8-----------|--------------------------------------|
--L--8--8-8--8--8--8--8--8--8--7--|--7--7--7--7--7--7--7--5--5--5--5--3--|


     PM PM     PM PM         PM PM PM PM                               
  E  S  S   E  S  S   E   E  S  S  S  S     S S E  E  E   E  E  E  E   
-----------------------------------------|----------------------------|
-----------------------------------------|----------------------------|
-----------------------------------------|----------------------------|
-----------------------------------------|----------------------------|
-----------------------------------------|--7-8-7--5--0--10--8--7--5--|
--0--0--0--10--0--0--10--12--0--0--0--0--|----------------------------|


     PM      PM PM       PM PM PM PM  
  E  S  S E  S  S  E  E  S  S  S  S   
-------------------------------------|
-------------------------------------|
-------------------------------------|
--8----------------------------------|
--8-------7--------7--8--------------|
--8--8--8-8--8--8--8--8--0--0--0--0--|


       PM PM PM PM      PM PM PM PM PM PM PM PM       PM    PM               
   S S S  S  S  S   S S S  S  S  S  S  S  S  S     E  E  E  E  E  E  E   E   
------------------------------------------------|---------------------------|
------------------------------------------------|---------------------------|
------------------------------------------------|---------------------------|
------------------------------------------------|--8------------------------|
------------------------------------------------|--8-----8-----8--7--5------|
--10-7-0--0--0--0--10-7-0--0--0--0--0--0--0--0--|--8--8-----8-----------10--|


   PM  PM  PM  PM  PM  PM  PM  PM                                 
   E   E   E   E   E   E   E   E      Q     Q     E   E   E   E   
----------------------------------|--13----10------------13--12--|
----------------------------------|--------------10--13----------|
----------------------------------|------------------------------|
--10--10--10--10--10--10--10--10--|------------------------------|
--10--10--10--10--10--10--10--10--|------------------------------|
--10--10--10--10--10--10--10--10--|------------------------------|


  Q     Q    E  E   E   E     Q     H        Q     
--L-------------8--12--10--|--L-------------------|
-------13----8-------------|-------11--------L----|
---------------------------|----------------------|
---------------------------|----------------------|
---------------------------|----------------------|
---------------------------|----------------------|


   E   E   E   E   E   E   E   E      Q     Q     E   E   E   E   
------------------10------10--12--|--13----10------------13--12--|
--11--10--11--13------13----------|--------------10--13----------|
----------------------------------|------------------------------|
----------------------------------|------------------------------|
----------------------------------|------------------------------|
----------------------------------|------------------------------|


  Q     Q    E  E   E   E     Q     H        Q     
--L-------------8--12--10--|--L-------------------|
-------13----8-------------|-------11--------L----|
---------------------------|----------------------|
---------------------------|----------------------|
---------------------------|----------------------|
---------------------------|----------------------|


   E   E   E   Q     E   E   E      H         H            H         H         
--------------12----10------13--|--13--------10--------|--10--------13--------|
--11--10--11------------13------|----------------------|----------------------|
--------------------------------|----------------------|----------------------|
--------------------------------|----------------------|----------------------|
--------------------------------|----------------------|----------------------|
--------------------------------|----------------------|----------------------|


   W                    E   E   E   E   E   E   E  E   
--12----------------|---------------------------------|
--------------------|--13--11--10--11--10-------------|
--------------------|----------------------12--10--9--|
--------------------|---------------------------------|
--------------------|---------------------------------|
--------------------|---------------------------------|


   E   E   E   E   E   E   E   E      E   E   E   E   E   E   E   E   
------------------10----------12--|--13--12--10------10------10------|
--11--10--11--13------11--13------|--------------13------13------11--|
----------------------------------|----------------------------------|
----------------------------------|----------------------------------|
----------------------------------|----------------------------------|
----------------------------------|----------------------------------|


   E   E   E   E   E   E   E   E      E   E   E   E   E   E   Q     
--------------10--12------12--15--|--18--17--15------15------------|
--13------13----------13----------|--------------18------18--17----|
------12--------------------------|--------------------------------|
----------------------------------|--------------------------------|
----------------------------------|--------------------------------|
----------------------------------|--------------------------------|


                                  PM PM PM PM PM PM PM  
   W                   Q     Q    E  S  S  S  S  S  S   
--------------------|----------------------------------|
--18----------------|--L\------------------------------|
--------------------|----------------------------------|
--------------------|----------------------------------|
--------------------|----------------------------------|
--------------------|-------------0--0--0--0--0--0--0--|


     PM     PM                                          PM     PM               
  E  E   E  E   E   Q    E      H        H           E  E   E  E   E   Q    E   
-----------------------------|--------------------|----------------------------|
-----------------------------|--------------------|----------------------------|
-----------------------------|--3--------5--------|----------------------------|
-----------------------------|--3--------5--------|----------------------------|
-----------------------------|--1--------3--------|----------------------------|
--0--0--10--0--10--12----L\--|--------------------|--0--0--10--0--10--12----L--|


             PM PM PM PM PM PM PM       PM     PM                
  Q     Q    E  S  S  S  S  S  S     E  E   E  E   E   Q    E    
----------------------------------|-----------------------------|
----------------------------------|-----------------------------|
----------------------------------|-----------------------------|
----------------------------------|-----------------------------|
----------------------------------|-----------------------------|
--L\---------0--0--0--0--0--0--0--|--0--0--10--0--10--12----L\--|


  H        H            S  S  S  S  S  S  S  S  S  S  S  S  S  S  S  S  
--------------------|--------------------------------------------------|
--------------------|--------------------------------------------------|
--3--------5--------|-----------14-15-17-15-14----------------14-15-17-|
--3--------5--------|--14-15-17----------------17-15-14-15-17----------|
--1--------3--------|--------------------------------------------------|
--------------------|--------------------------------------------------|


   S  S  S  S  S  S  S  S  S  S  S  S  S  S  S  S  
--------------------------------------------------|
-----------15-17-18-17-15----------------15-17-18-|
--14-15-17----------------17-15-14-15-17----------|
--------------------------------------------------|
--------------------------------------------------|
--------------------------------------------------|


   S  S  S  S  S  S  S  S  S  S  S  S  S  S  S  S  
-----------15-------------------13-15-13-12-13-15-|
--15-17-18----18-17-15-13-15-17-------------------|
--------------------------------------------------|
--------------------------------------------------|
--------------------------------------------------|
--------------------------------------------------|


   |--3--|  |--3--|  |--3--|  |--3--|  |--3--|  |--3--|          
   S  S  S  S  S  S  S  S  S  S  S  S  S  S  S  S  S  S  E  E    
--17-17-17-17-17-17-17-13----------------------13-17-17-17--L\--|
--------------------------15----------------15------------------|
-----------------------------14----------14---------------------|
--------------------------------15----15------------------------|
-----------------------------------17---------------------------|
----------------------------------------------------------------|


  E   E   E   E   E   E   E   E     E   E   E   E   E   E   E   E   
---------------------------------|-------------------------15--13--|
-----15--13--------------13--15--|--L--15--13----------------------|
-------------15--14--15----------|-------------14------14----------|
---------------------------------|-----------------15--------------|
---------------------------------|---------------------------------|
---------------------------------|---------------------------------|


   |---3---|   |-3-|  |--3--|                        
   E   E   E   E   S  S  S  S  S  S  S  S  S  S  E   
--15--17--13--15--18-17-18-17-----------------------|
------------------------------18-17-15----15-17-18--|
---------------------------------------17-----------|
----------------------------------------------------|
----------------------------------------------------|
----------------------------------------------------|


   |---3---|   |-3-|  |--3--|                                                 
   E   E   E   E   S  S  S  S  S  S  S  S  S  S E       H          H          
--15--17--13--15--18-17-18-17-----------------------|--19b--------19b--------|
------------------------------18-17-15--------------|------------------------|
---------------------------------------17-15-14-L\--|------------------------|
----------------------------------------------------|------------------------|
----------------------------------------------------|------------------------|
----------------------------------------------------|------------------------|


   Q      E   E   H         
--19b------------18--------|
---------18--20------------|
---------------------------|
---------------------------|
---------------------------|
---------------------------|


   |--3--|  |--3-|  |--3--|  |--3-|  |--3--|  |--3--|              
   S  S  S  S  S S  S  S  S  S  S S  S  S  S  S  S  S  S  S  S  S  
------------------------------------14-15-17-17-15-14-------------|
--15-17-18-18-18-L-15-17-18-18-18-L-------------------15-17-18-17-|
------------------------------------------------------------------|
------------------------------------------------------------------|
------------------------------------------------------------------|
------------------------------------------------------------------|


                                             PM  PM      PM          PM  PM  
   S  S  S  S  S  S  S  S  S  S  Q    E      E   E   E   E   E   E   E   E   
-----------------------------------------|----------12------12--13----------|
--15-17-18----------------------13----L--|----------------------------------|
-----------12-14-15-14-12-14-15----------|--10--10------10----------10--10--|
-----------------------------------------|----------------------------------|
-----------------------------------------|----------------------------------|
-----------------------------------------|----------------------------------|


       PM          PM                                              
   E   E   E   E   E    E   Q        Q     E   E   E   E   E   E   
--12------12--13------/17--15----|--------15------15--17--15------|
---------------------------------|--15--------15--------------18--|
------10----------10-------------|--------------------------------|
---------------------------------|--------------------------------|
---------------------------------|--------------------------------|
---------------------------------|--------------------------------|


   E   E   E   E   E   E   E  S  T  T  
--15----------------------------12-13-|
------18--17--18--17--15--------------|
--------------------------17--L-------|
--------------------------------------|
--------------------------------------|
--------------------------------------|


   S  S  S  S  S  S  S  S  S  S  S  S  S  S  S  S  
--15-13-12-13-15-13-12-13-15-13-12-13-15-13-12-13-|
--------------------------------------------------|
--------------------------------------------------|
--------------------------------------------------|
--------------------------------------------------|
--------------------------------------------------|


                                            |--3--|                       
   S  S  S  S  S  S  S  S S  S  S  S  S  S  S  S  S     W                 
--15-13-12---------------------------------12-13-15-|--17----------------|
-----------13-11-10---------------10-11-13----------|--------------------|
--------------------12-10-9-10-12-------------------|--------------------|
----------------------------------------------------|--------------------|
----------------------------------------------------|--------------------|
----------------------------------------------------|--------------------|


  Q    Q     E  E   E   E     Q     H        Q     
--L----L\-------8--12--10--|--L-------------------|
-------------8-------------|-------11--------L----|
---------------------------|----------------------|
---------------------------|----------------------|
---------------------------|----------------------|
---------------------------|----------------------|


   E   E   E   E   E   E   E   E      Q     Q     E   E   E   E   
------------------10------10--12--|--13----10------------13--12--|
--11--10--11--13------13----------|--------------10--13----------|
----------------------------------|------------------------------|
----------------------------------|------------------------------|
----------------------------------|------------------------------|
----------------------------------|------------------------------|


  Q     Q    E  E   E   E     Q     H        Q     
--L-------------8--12--10--|--L-------------------|
-------13----8-------------|-------11--------L----|
---------------------------|----------------------|
---------------------------|----------------------|
---------------------------|----------------------|
---------------------------|----------------------|


   E   E   E   Q     E   E   E      H         H            H         H         
--------------12----10------13--|--13--------10--------|--10--------13--------|
--11--10--11------------13------|----------------------|----------------------|
--------------------------------|----------------------|----------------------|
--------------------------------|----------------------|----------------------|
--------------------------------|----------------------|----------------------|
--------------------------------|----------------------|----------------------|


   W                    E   E   E   E   E   E   E  E   
--12----------------|---------------------------------|
--------------------|--13--11--10--11--10-------------|
--------------------|----------------------12--10--9--|
--------------------|---------------------------------|
--------------------|---------------------------------|
--------------------|---------------------------------|


   E   E   E   E   E   E   E   E      E   E   E   E   E   E   E   E   
------------------10----------12--|--13--12--10------10------10------|
--11--10--11--13------11--13------|--------------13------13------11--|
----------------------------------|----------------------------------|
----------------------------------|----------------------------------|
----------------------------------|----------------------------------|
----------------------------------|----------------------------------|


   E   E   E   E   E   E   E   E      E  E   Q    Q    Q     
--------------10--12------12--15--|--22--L\-----------------|
--13------13----------13----------|-------------------------|
------12--------------------------|-------------------------|
----------------------------------|-------------------------|
----------------------------------|-------------------------|
----------------------------------|-------------------------|


     PM     PM                  PM PM PM PM PM PM PM PM PM PM PM PM PM PM  
  E  E   E  E   E   Q    E      E  S  S  S  S  S  S  E  S  S  S  S  S  S   
-----------------------------|--------------------------------------------|
-----------------------------|--------------------------------------------|
-----------------------------|--------------------------------------------|
-----------------------------|--------------------------------------------|
-----------------------------|--------------------------------------------|
--0--0--10--0--10--12----L\--|--0--0--0--0--0--0--0--0--0--0--0--0--0--0--|


     PM     PM                                     
  E  E   E  E   E   Q    E      H        H         
-----------------------------|--------------------|
-----------------------------|--------------------|
-----------------------------|--3-----------------|
-----------------------------|--3--------3--------|
-----------------------------|--1--------3--------|
--0--0--10--0--10--12----L\--|-----------3--------|


     PM     PM                  PM PM PM PM PM PM PM PM PM PM PM PM PM PM  
  E  E   E  E   E   Q    E      E  S  S  S  S  S  S  E  S  S  S  S  S  S   
-----------------------------|--------------------------------------------|
-----------------------------|--------------------------------------------|
-----------------------------|--------------------------------------------|
-----------------------------|--------------------------------------------|
-----------------------------|--------------------------------------------|
--0--0--10--0--10--12----L\--|--0--0--0--0--0--0--0--0--0--0--0--0--0--0--|


     PM     PM                                                           
  E  E   E  E   E   Q    E      H        Q    E  E     W                 
-----------------------------|----------------------|-------------------|
-----------------------------|----------------------|-------------------|
-----------------------------|--3-------------------|-------------------|
-----------------------------|--3--------3----L--0--|--L----------------|
-----------------------------|--1--------3----L--0--|--L----------------|
--0--0--10--0--10--12----L\--|-----------3----L--0--|--L----------------|


  W                   W                   W                  
-------------------|-------------------|-------------------||
-------------------|-------------------|-------------------||
-------------------|-------------------|-------------------||
--L----------------|--L----------------|--L----------------||
--L----------------|--L----------------|--L----------------||
--L----------------|--L----------------|--L----------------||


Guitar 3

(00:55)

   Q     Q     E   E   E   E     Q     Q     E   E   E   E   
--17----13------------17--15--|--L--------------12--15--13--|
--------------15--17----------|-------17----13--------------|
------------------------------|-----------------------------|
------------------------------|-----------------------------|
------------------------------|-----------------------------|
------------------------------|-----------------------------|


  Q     H        Q        E   E   E   Q     E   E   E      H         H         
--L-------------------|--------------15----13------17--|--17--------13--------|
-------15--------L----|--15--13--15------------17------|----------------------|
----------------------|--------------------------------|----------------------|
----------------------|--------------------------------|----------------------|
----------------------|--------------------------------|----------------------|
----------------------|--------------------------------|----------------------|


   H         H            W                    E   E   E   E   E   E   E   E   
------------17--------|--15----------------|----------------------------------|
--15------------------|--------------------|--17--15--13--15--13--------------|
----------------------|--------------------|----------------------15--14--12--|
----------------------|--------------------|----------------------------------|
----------------------|--------------------|----------------------------------|
----------------------|--------------------|----------------------------------|


   E   E   E   E   E   E   E   E      E   E   E   E   E   E   E   E   
------------------13----------15--|--17--15--13------13------13------|
--15--13--15--17------15--17------|--------------17------17------15--|
----------------------------------|----------------------------------|
----------------------------------|----------------------------------|
----------------------------------|----------------------------------|
----------------------------------|----------------------------------|


   E   E   E   E   E   E   E   E       E   E   Q    Q    Q                     
--------------13--15------15--18--|---------------------------|-------|-------|
--17--13--17----------17----------|---------------------------|-------|-------|
----------------------------------|---------------------------|-------|-------|
----------------------------------|--/12---L\-----------------|-------|-------|
----------------------------------|--/12---L\-----------------|-------|-------|
----------------------------------|--/12---L\-----------------|-------|-------|


(01:56)


   Q     Q     E   E   E   E     Q     Q     E   E   E   E   
--17----13------------17--15--|--L--------------12--15--13--|
--------------15--17----------|-------17----13--------------|
------------------------------|-----------------------------|
------------------------------|-----------------------------|
------------------------------|-----------------------------|
------------------------------|-----------------------------|


  Q     H        Q        E   E   E   Q     E   E   E      H         H         
--L-------------------|--------------15----13------17--|--17--------13--------|
-------15--------L----|--15--13--15------------17------|----------------------|
----------------------|--------------------------------|----------------------|
----------------------|--------------------------------|----------------------|
----------------------|--------------------------------|----------------------|
----------------------|--------------------------------|----------------------|


   H         H            W                    E   E   E   E   E   E   E   E   
------------17--------|--15----------------|----------------------------------|
--15------------------|--------------------|--17--15--13--15--13--------------|
----------------------|--------------------|----------------------15--14--12--|
----------------------|--------------------|----------------------------------|
----------------------|--------------------|----------------------------------|
----------------------|--------------------|----------------------------------|


   E   E   E   E   E   E   E   E      E   E   E   E   E   E   E   E   
------------------13----------15--|--17--15--13------13------13------|
--15--13--15--17------15--17------|--------------17------17------15--|
----------------------------------|----------------------------------|
----------------------------------|----------------------------------|
----------------------------------|----------------------------------|
----------------------------------|----------------------------------|


   E   E   E   E   E   E   E   E      E   E   E   E   E   E   Q     
--------------13--15------15--18--|--22--20--18------18------------|
--17--13--17----------17----------|--------------22------22--20----|
----------------------------------|--------------------------------|
----------------------------------|--------------------------------|
----------------------------------|--------------------------------|
----------------------------------|--------------------------------|


   W                   Q     Q    Q    Q                                     
--------------------|-----------------------|-------|-------|-------|-------|
--22----------------|--L\-------------------|-------|-------|-------|-------|
--------------------|-----------------------|-------|-------|-------|-------|
--------------------|-----------------------|-------|-------|-------|-------|
--------------------|-----------------------|-------|-------|-------|-------|
--------------------|-----------------------|-------|-------|-------|-------|


(02:31)


  E   E   E   E   E   E   E   E     E   E   E   E   E   E   E   E   
---------------------------------|-------------------------18--17--|
-----18--17--------------17--18--|--L--18--17----------------------|
-------------19--17--19----------|-------------17------17----------|
---------------------------------|-----------------19--------------|
---------------------------------|---------------------------------|
---------------------------------|---------------------------------|


  E   E  E  E  E  E  E  E                                           
--L\-----------------------|-------|-------|-------|-------|-------|
---------------------------|-------|-------|-------|-------|-------|
---------------------------|-------|-------|-------|-------|-------|
---------------------------|-------|-------|-------|-------|-------|
---------------------------|-------|-------|-------|-------|-------|
---------------------------|-------|-------|-------|-------|-------|


   PM  PM      PM          PM  PM         PM          PM             
   E   E   E   E   E   E   E   E      E   E   E   E   E    E   Q     
----------------------------------|----------------------/13--12----|
----------13------13--15----------|--13------13--15-----------------|
----------------------------------|---------------------------------|
--12--12------12----------12--12--|------12----------12-------------|
----------------------------------|---------------------------------|
----------------------------------|---------------------------------|


   Q     E   E   E   E   E   E      E   E   E   E   E   E   E  S  T  T  
--------------------------------|--------------------------------15-17-|
--------17------17--18--17--15--|--17--15------15----------------------|
--15--------15------------------|----------17------17--15--14--L-------|
--------------------------------|--------------------------------------|
--------------------------------|--------------------------------------|
--------------------------------|--------------------------------------|


   S  S  S  S  S  S  S  S  S  S  S  S  S  S  S  S  
--18-17-15-17-18-17-15-17-18-17-15-17-18-17-15-17-|
--------------------------------------------------|
--------------------------------------------------|
--------------------------------------------------|
--------------------------------------------------|
--------------------------------------------------|


                                             |--3--|                       
   S  S  S  S  S  S  S  S  S  S  S  S  S  S  S  S  S     W                 
--18-17-15----------------------------------15-17-18-|--22----------------|
-----------18-17-15----------------15-17-18----------|--------------------|
--------------------17-15-14-15-17-------------------|--------------------|
-----------------------------------------------------|--------------------|
-----------------------------------------------------|--------------------|
-----------------------------------------------------|--------------------|


  Q    Q     H                            Q     Q     E   E   E   E   
--L----L\-------------|-------|-------|--17----13------------17--15--|
----------------------|-------|-------|--------------15--17----------|
----------------------|-------|-------|------------------------------|
----------------------|-------|-------|------------------------------|
----------------------|-------|-------|------------------------------|
----------------------|-------|-------|------------------------------|


  Q     Q     E   E   E   E     Q     H        Q     
--L--------------12--15--13--|--L-------------------|
-------17----13--------------|-------15--------L----|
-----------------------------|----------------------|
-----------------------------|----------------------|
-----------------------------|----------------------|
-----------------------------|----------------------|


   E   E   E   Q     E   E   E      H         H            H         H         
--------------15----13------17--|--17--------13--------|------------17--------|
--15--13--15------------17------|----------------------|--15------------------|
--------------------------------|----------------------|----------------------|
--------------------------------|----------------------|----------------------|
--------------------------------|----------------------|----------------------|
--------------------------------|----------------------|----------------------|


   W                    E   E   E   E   E   E   E   E   
--15----------------|----------------------------------|
--------------------|--17--15--13--15--13--------------|
--------------------|----------------------15--14--12--|
--------------------|----------------------------------|
--------------------|----------------------------------|
--------------------|----------------------------------|


   E   E   E   E   E   E   E   E      E   E   E   E   E   E   E   E   
------------------13----------15--|--17--15--13------13------13------|
--15--13--15--17------15--17------|--------------17------17------15--|
----------------------------------|----------------------------------|
----------------------------------|----------------------------------|
----------------------------------|----------------------------------|
----------------------------------|----------------------------------|


   E   E   E   E   E   E   E   E       E   E   Q    Q    Q                     
--------------13--15------15--18--|---------------------------|-------|-------|
--17--13--17----------17----------|---------------------------|-------|-------|
----------------------------------|---------------------------|-------|-------|
----------------------------------|--/12---L\-----------------|-------|-------|
----------------------------------|--/12---L\-----------------|-------|-------|
----------------------------------|--/12---L\-----------------|-------|-------|


Duration Legend
---------------
W - whole
H - half
Q - quarter
E - 8th
S - 16th
T - 32nd
X - 64th
. - note dotted
|-n-|  - n-tuplets


Tablature Legend
----------------
L - tied note
x - dead note
g - grace note
(n) - ghost note
> - accentuded note
NH - natural harmonic
AH - artificial harmonic
TH - tapped harmonic
SH - semi harmonic
PH - pitch harmonic
h - hammer on
p - pull off
b - bend
br - bendRelease
pb - preBend
pbr - preBendRelease
brb - bendReleaseBend
\n/ - tremolo bar dip
\n - tremolo bar dive
-/n - tremolo bar Release up
/n\ - tremolo bar inverted dip
/n - tremolo bar return
-\n - tremolo bar Release down
S - shift slide
s - legato slide
/ -  slide into from below or out of upwards
\ -  slide into from above or out of downwards
~ - vibrato
W - wide vibrato
tr - trill
TP - tremolo picking
T - tapping
S - slap
P - pop
< - fade in
^ - brush up
v - brush down


That is all! I hope this helped, and be sure to check out my cover if you are
having problems with the tab. Thanks, oh and one last thing... ROCK OUT!!!!
comments
print report bad tab
2 comments total.
0 reply
bvbsoldier99 wrote on June 9 2013, 06:17 pm

Your cover was sick. Great tabs man!

0 reply
dkm817 wrote on June 9 2013, 08:36 pm

Thanks! I'm glad you liked them.

I want to post or [tab]
guest
You may want to rate the tab now too:
select rating
Please do not post tabs as comments. Select "correction" instead!