Oops, an error
Loading. Please wait.

Set The World On Fire Bass Tab

ver1
ver1

Album

Whole song

Interactive

More versions @911Tabs.com
137 views 12 this week
no commentswrite comment
1 2 3 4 5
please rate
Autoscroll
+/-
esc
set tempo
stop
Contributor
Difficulty
Tuning
advanced
C# G# C# F# A# D#
Hey! There's an official Ultimate Guitar app which is ideal
for learning songs when you're away from computer. Get the app
WARNING: You are trying to view
                                    content from Ultimate-Guitar.com
                                    in an unauthorized application,
                                    which is prohibited.

                                    Please use an official Ultimate
                                    Guitar Tabs application for iPhone,
                                    iPad or Android to access legitimate
                                    chords, guitar, bass, and drum tabs
                                    from Ultimate-Guitar.com database.

                                    Type "ultimate guitar tabs" in Apple
                                    App Store's or Android Market's
                                    search to find the application.
New Religion

F#|-----------------------------------------------------------------|
C#|-----------------------------------------------------------------|
G#|-----------------------------------------------------------------|
C#|-0-------------------------------0---------------0-3-5-6-5-3-0-3-|
    1 + 2 + 3 + 4 + 1 + 2 + 3 + 4 + 1 + 2 + 3 + 4 + 1 + 2 + 3 + 4 +

F#|-----------------------------------------------------------------|
C#|-----------------------------------------------------------------|
G#|-----------------------------------------------------------------|
C#|-0---------------------------------------------------------------|
    1 + 2 + 3 + 4 + 1 + 2 + 3 + 4 + 1 + 2 + 3 + 4 + 1 + 2 + 3 + 4 +

0:08 Verse
F#|-----------------------------------------------------------------------|
C#|o----------------------------8-7-5-------------------------------------|
G#|o----------------------------------8-----------------------------------|
C#|--0-0-0-0-12-0-10-0-12-0-0-0---------0-0-0-0-12-0-10-0-0-3-5-6-5-3-0-3-|
     1 + 2 + 3  + 4  + 1  + 2 + 3 + 4 + 1 + 2 + 3  + 4  + 1 + 2 + 3 + 4 +

F#|------------------------------------------6-7-6---6------------------|
C#|----------------------------8-7-5---5-7-8-------8-------------------o|
G#|----------------------------------8---------------------------------o|
C#|-0-0-0-0-12-0-10-0-12-0-0-0-------------------------0-0-0-0-0-0-0-0--|
    1 + 2 + 3  + 4  + 1  + 2 + 3 + 4 + 1 + 2 + 3 + 4 + 1 + 2 + 3 + 4 +

0:26 Pre Chorus
F#|-----------------------------------------------------------------|
C#|-----------------------------------------------------------------|
G#|-----------------3-----------------------------0-----------------|
C#|-0-0-0-0-0-0---0---6-5-3-3-5-6-3---3-5-3-6-5-3-----6-5-3-3-5-3-0-|
    1 + 2 + 3 + 4 + 1 + 2 + 3 + 4 + 1 + 2 + 3 + 4 + 1 + 2 + 3 + 4 +

F#|-----------------------------------------------------------------|
C#|-----------------------------------------------6---5-3-0---------|
G#|-----------------3-----------------------------------------------|
C#|---0-0-0-0-0---0---6-5-3-3-5-6-3---3-5-3-6-5-3-----------3-5-6-0-|
    1 + 2 + 3 + 4 + 1 + 2 + 3 + 4 + 1 + 2 + 3 + 4 + 1 + 2 + 3 + 4 +

F#|-----------------------------------------------------------------|
C#|-----------------------------------------------------------------|
G#|-----------------3-----------------------------0-----------------|
C#|---0-0-0-0-0---0---6-5-3-3-5-6-3---3-5-3-6-5-3-----6-5-3-3-5-3-0-|
    1 + 2 + 3 + 4 + 1 + 2 + 3 + 4 + 1 + 2 + 3 + 4 + 1 + 2 + 3 + 4 +

F#|-----------------------------------------------------------------|
C#|-----------------------------------------------6---5-3-0---------|
G#|-----------------3-----------------------------------------------|
C#|---0-0-0-0-0---0---6-5-3-3-5-6-3---3-5-3-6-5-3-----------3-5-6-0-|
    1 + 2 + 3 + 4 + 1 + 2 + 3 + 4 + 1 + 2 + 3 + 4 + 1 + 2 + 3 + 4 +

F#|---------------------------------|
C#|---------------------------------|
G#|---------------------------------|
C#|-7---7---7---7---7---7---7---7---|
    1 + 2 + 3 + 4 + 1 + 2 + 3 + 4 + 

0:47 Chorus
F#|------------------------------------------------------------------|
C#|o-----------------------------------------------------------------|
G#|o-------------------------7-7-7-7-1-1-1-1-1-1-1-1-1-1-1-1-1-3-1-0-|
C#|--0-0-0-0-0-0-0-0-0-0-0-0-----------------------------------------|
     1 + 2 + 3 + 4 + 1 + 2 + 3 + 4 + 1 + 2 + 3 + 4 + 1 + 2 + 3 + 4 +

F#|------------------------------------------------------------------|
C#|-----------------------------------------------------------------o|
G#|-----------------------------------------------------0-1---------o|
C#|-5-5-5-5-5-5-5-5-5-5-5-5-5-5-5-5-3-3-3-3-3-3-3-3-3-5-----3-5-3-2--|
    1 + 2 + 3 + 4 + 1 + 2 + 3 + 4 + 1 + 2 + 3 + 4 + 1 + 2 + 3 + 4 +

1:07 Verse
F#|-----------------------------------------------------------------------|
C#|o----------------------------8-7-5-------------------------------------|
G#|o----------------------------------8-----------------------------------|
C#|--0-0-0-0-12-0-10-0-12-0-0-0---------0-0-0-0-12-0-10-0-0-3-5-6-5-3-0-3-|
     1 + 2 + 3  + 4  + 1  + 2 + 3 + 4 + 1 + 2 + 3  + 4  + 1 + 2 + 3 + 4 +

F#|------------------------------------------6-7-6---6------------------|
C#|----------------------------8-7-5---5-7-8-------8-------------------o|
G#|----------------------------------8---------------------------------o|
C#|-0-0-0-0-12-0-10-0-12-0-0-0-------------------------0-0-0-0-0-0-0-0--|
    1 + 2 + 3  + 4  + 1  + 2 + 3 + 4 + 1 + 2 + 3 + 4 + 1 + 2 + 3 + 4 +

1:25 Pre Chorus
F#|-----------------------------------------------------------------|
C#|-----------------------------------------------------------------|
G#|-----------------3-----------------------------0-----------------|
C#|-0-----------------6-5-3-3-5-6-3---3-5-3-6-5-3-----6-5-3-3-5-3-0-|
    1 + 2 + 3 + 4 + 1 + 2 + 3 + 4 + 1 + 2 + 3 + 4 + 1 + 2 + 3 + 4 +

F#|-----------------------------------------------------------------|
C#|-----------------------------------------------6---5-3-0---------|
G#|-----------------3-----------------------------------------------|
C#|---0-0-0-0-0---0---6-5-3-3-5-6-3---3-5-3-6-5-3-----------3-5-6-0-|
    1 + 2 + 3 + 4 + 1 + 2 + 3 + 4 + 1 + 2 + 3 + 4 + 1 + 2 + 3 + 4 +

F#|-----------------------------------------------------------------|
C#|-----------------------------------------------------------------|
G#|-----------------3-----------------------------0-----------------|
C#|---0-0-0-0-0---0---6-5-3-3-5-6-3---3-5-3-6-5-3-----6-5-3-3-5-3-0-|
    1 + 2 + 3 + 4 + 1 + 2 + 3 + 4 + 1 + 2 + 3 + 4 + 1 + 2 + 3 + 4 +

F#|-----------------------------------------------------------------|
C#|-----------------------------------------------6---5-3-0---------|
G#|-----------------3-----------------------------------------------|
C#|---0-0-0-0-0---0---6-5-3-3-5-6-3---3-5-3-6-5-3-----------3-5-6-0-|
    1 + 2 + 3 + 4 + 1 + 2 + 3 + 4 + 1 + 2 + 3 + 4 + 1 + 2 + 3 + 4 +

1:43
F#|---------------------------------|
C#|---------------------------------|
G#|---------------------------------|
C#|-7-7-7-7-7-7-7-7-7-7-7-7-7-7-7-7-|
    1 + 2 + 3 + 4 + 1 + 2 + 3 + 4 + 

1:45 Chorus
F#|------------------------------------------------------------------|
C#|o-----------------------------------------------------------------|
G#|o-------------------------7-7-7-7-1-1-1-1-1-1-1-1-1-1-1-1-1-3-1-0-|
C#|--0-0-0-0-0-0-0-0-0-0-0-0-----------------------------------------|
     1 + 2 + 3 + 4 + 1 + 2 + 3 + 4 + 1 + 2 + 3 + 4 + 1 + 2 + 3 + 4 +

F#|------------------------------------------------------------------|
C#|-----------------------------------------------------------------o|
G#|-----------------------------------------------------0-1---------o|
C#|-5-5-5-5-5-5-5-5-5-5-5-5-5-5-5-5-3-3-3-3-3-3-3-3-3-5-----3-5-3-2--|
    1 + 2 + 3 + 4 + 1 + 2 + 3 + 4 + 1 + 2 + 3 + 4 + 1 + 2 + 3 + 4 +

2:04 Interlude
F#|--------------------------------------------------|
C#|--------------------------------------------------|
G#|-----------------0-------0------------------------|
C#|-0-3-5-6-0-3-5-6---6-5-3---6-5-3------------------|
    1 + 2 + 3 + 4 + 1 + 2 + 3 + 4 + 1 + 2 + 3 + 4 + 

F#|-----------------------------------------------------------------|
C#|-----------------------------------------------------------------|
G#|-----------------0-------0-----------------------0-0-------------|
C#|-0-3-5-6-0-3-5-6---6-5-3---6-5-3-0-3-5-6-0-3-5-6-----6-6-5-5-4---|
    1 + 2 + 3 + 4 + 1 + 2 + 3 + 4 + 1 + 2 + 3 + 4 + 1 + 2 + 3 + 4 +

2:12
F#|-----------------------------------------------------------------|
C#|-----------------------------------------------------------------|
G#|-----------------------------------------------------------------|
C#|-0-------1-----------------------0---------------0-3-5-6-5-3-0-3-|
    1 + 2 + 3 + 4 + 1 + 2 + 3 + 4 + 1 + 2 + 3 + 4 + 1 + 2 + 3 + 4 +

F#|-----------------------------------------------------------------|
C#|-----------------------------------------------------------------|
G#|-----------------------------------------------------------------|
C#|-0---------------------------------------------------------------|
    1 + 2 + 3 + 4 + 1 + 2 + 3 + 4 + 1 + 2 + 3 + 4 + 1 + 2 + 3 + 4 +

2:21 Solo
F#|------------------------------------------------------------------------|
C#|o----------------------------8-7-5-------------------------------------o|
G#|o----------------------------------8-----------------------------------o|x4
C#|--0-0-0-0-12-0-10-0-12-0-0-0---------0-0-0-0-12-0-10-0-0-3-5-6-5-3-0-3--|
     1 + 2 + 3  + 4  + 1  + 2 + 3 + 4 + 1 + 2 + 3  + 4  + 1 + 2 + 3 + 4 +

2:39
F#|-------------------------------------------------------------------|
C#|o-----------------------------------------------------------------o|
G#|o-------------------------------------------------3---------------o|
C#|--0-0-0-0-0-0---0-0-0-0-0-0-0---0-0-0-0-0-0-0---0---6-5-6-3-5-3-2--|
     1 + 2 + 3 + 4 + 1 + 2 + 3 + 4 + 1 + 2 + 3 + 4 + 1 + 2 + 3 + 4 +

F#|-----------------------------------------------------------------|
C#|-----------------------------------------------------------------|
G#|-------------------------------------------------3---------------|
C#|-0---0---0-------0---0---0---0---0---0---0---------6-5-6-3-5-3-2-|
    1 + 2 + 3 + 4 + 1 + 2 + 3 + 4 + 1 + 2 + 3 + 4 + 1 + 2 + 3 + 4 +

F#|-----------------------------------------------------------------|
C#|-----------------------------------------------------------------|
G#|-------------------------------------------------3---------------|
C#|-0-0-0-0-0-------0---0---0---0---0---0---0---------------3-------|
    1 + 2 + 3 + 4 + 1 + 2 + 3 + 4 + 1 + 2 + 3 + 4 + 1 + 2 + 3 + 4 +

2:57 Chorus
F#|------------------------------------------------------------------|
C#|o-----------------------------------------------------------------|
G#|o-------------------------7-7-7-7-1-1-1-1-1-1-1-1-1-1-1-1-1-3-1-0-|
C#|--0-0-0-0-0-0-0-0-0-0-0-0-----------------------------------------|
     1 + 2 + 3 + 4 + 1 + 2 + 3 + 4 + 1 + 2 + 3 + 4 + 1 + 2 + 3 + 4 +

F#|------------------------------------------------------------------|
C#|-----------------------------------------------------------------o|
G#|-----------------------------------------------------0-1---------o|
C#|-5-5-5-5-5-5-5-5-5-5-5-5-5-5-5-5-3-3-3-3-3-3-3-3-3-5-----3-5-3-2--|
    1 + 2 + 3 + 4 + 1 + 2 + 3 + 4 + 1 + 2 + 3 + 4 + 1 + 2 + 3 + 4 +

3:16 Outro
F#|-----------------------------------------------------------------|
C#|-----0-2-3-2-0-----------------------0-2-3-2-0-------------------|
G#|---------------1-0-------0---------------------1-0---------------|
C#|-0-----------------5-3-2---5-3-5-0-------------------3---5---3-5-|
    1 + 2 + 3 + 4 + 1 + 2 + 3 + 4 + 1 + 2 + 3 + 4 + 1 + 2 + 3 + 4 +

F#|-----------------------------------------------------------------|
C#|-----0-2-3-2-0---------------------------------------------------|
G#|---------------1-0-------0---------------------------------------|
C#|-0-----------------5-3-2---5-3-5-3-3-3-5-5-5-7-7-7-2-2-2-2-2-2-2-|
    1 + 2 + 3 + 4 + 1 + 2 + 3 + 4 + 1 + 2 + 3 + 4 + 1 + 2 + 3 + 4 +

F#|-----------------------------------------------------------------|
C#|-----0-2-3-2-0-----------------------0-2-3-2-0-------------------|
G#|---------------1-0-------0---------------------1-0-------0-------|
C#|-0-----------------5-3-2---5-3-5-0-----------------5-3-2---5-3-2-|
    1 + 2 + 3 + 4 + 1 + 2 + 3 + 4 + 1 + 2 + 3 + 4 + 1 + 2 + 3 + 4 +

F#|-----------------------------------------------------------------|
C#|-----0-2-3-2-0---------------------------------------------------|
G#|---------------1-0-------0---------------------------------------|
C#|-0-----------------5-3-2---5-3-5-3-3-3-5-5-5-7-7-7-2-2-2-2-2-2-2-|
    1 + 2 + 3 + 4 + 1 + 2 + 3 + 4 + 1 + 2 + 3 + 4 + 1 + 2 + 3 + 4 +

F#|-----------------------------------------------------------------|
C#|-----------------------------------------------------------------|
G#|-----------------------------------------------------------------|
C#|-0---0-0-0---0-0-0-----------------------------------------------|
    1 + 2 + 3 + 4 + 1 + 2 + 3 + 4 + 1 + 2 + 3 + 4 + 1 + 2 + 3 + 4 +

Tabbed by Dave Vucko

===============================================================================

Set The World On Fire

Intro
0:09
F#|-------------------------------------------------------------------------|
C#|-------------------------------------------------------------------------|
G#|-------------------------------------------------------------------------|
C#|-7(x16)---10(x16)---3(x16)---5(x16)---7(x16)---10(x16)---3(x16)---0(x16)-|

Verse
0:28                    x4
|-------------------------|-----------------------------|
|o-----------------------o|-----------------------------|
|o-----------------------o|-----------------------------|
|--7(x16)---3(x8)--5(x8)--|-7-3-0--7-3-5--7-3-0--3(x16)-|

Chorus
0:57
|-------------------------------------------------------------------------|
|-------------------------------------------------------------------------|
|-------------------------------------------------------------------------|
|-7(x16)---10(x16)---3(x16)---5(x16)---7(x16)---10(x16)---3(x16)---0(x16)-|

Verse
1:16                    x4
|-------------------------|-----------------------------|
|o-----------------------o|-----------------------------|
|o-----------------------o|-----------------------------|
|--7(x16)---3(x8)--5(x8)--|-7-3-0--7-3-5--7-3-0--3(x16)-|

Chorus
1:45
|-------------------------------------------------------------------------|
|-------------------------------------------------------------------------|
|-------------------------------------------------------------------------|
|-7(x16)---10(x16)---3(x16)---5(x16)---7(x16)---10(x16)---3(x16)---0(x16)-|

Interlude
2:04
|---------------------------------------------------------|
|---------------------------------------------------------|
|---------------------------------------------------------|
|-7--7-3--3-4--4-5-109--7-79107--3-3573--5-5795--7-77-109-|

|---------------------------------------------------------------------|
|---------------------------------------------------------------------|
|---------------------------------------------------------------------|
|-7-79107--3-3573--5-5795--7-77-109-7-79107--3-3573--5-5795--7-77-109-|

2:23
|---------------------------------|
|---------------------------------|
|---------------------------------|
|-7-910-5-3-57-3-0-23-0-2-10-9-5/-|

Solo
2:33
|----------------------------------------------------------------------------|
|----------------------------------------------------------------------------|
|----------------------------------------------------------------------------|
|--7(x14)-10--5(x16)-3(x16)-0(x16)-7(x14)-10--5(x16)-3(x16)-00-00-00-00-0000-|

Chorus
2:52
|---------------------------------------------------------------------------|
|o-------------------------------------------------------------------------o|
|o-------------------------------------------------------------------------o|
|--7(x16)---10(x16)---3(x16)---5(x16)---7(x16)---10(x16)---3(x16)---0(x16)--|

3:30
|---------------------|
|---------------------|
|---------------------|
|-7(x16)-3(x15)-7757\-|
Tabbed by Dave Vucko

======================================================================================

Fallen Angels

0:09
F#|-----------------------------------------------------------------|
C#|-----------------------------------------------------------------|
G#|-----------------------------------------------------------------|
C#|-5~555555555557781~111111111113453~33333333333345-00000000-11-33-|

2:21
|-------------------------------------------------------------------|
|-------------------------------------------------------------------|
|-------------------------------------------------------------------|
|-5~555555555557781~111111111113453~33333333333345-00000000-1111333-|X2

0:43
|---------------------------------------|
|---------------------------------------|
|---------------------------------------|
|-1~1(x15)-3(x10)-8-78-1~1(x15)--3(x16)-|

0:54
|---------------------------------------------------|
|---------------------------------------------------|
|---------------------------------------------------|
|-5(x8)-1(x8)-3(x8)-88887777-5(x8)-1(x8)-3(x12)-333-|

|--------------------------------------------------------|
|--------------------------------------------------------|
|--------------------------------------------------------|
|-5~5(x7)-1(x8)-3~3(x7)-88887777-5(x8)-1(x8)-3(x8)-33-44-|

1:16
|----------------------------------------------------------------------|
|----------------------------------------------------------------------|
|----------------------------------------------------------------------|
|-5~555555555557781~111111111113453~33333333333345-00000000-10-9-7h8p7-|

1:28
|-------------------------------------------------------------------|
|-------------------------------------------------------------------|
|-------------------------------------------------------------------|
|-5~555555555557781~111111111113453~33333333333345-00000000-1111333-|X2

1:50
|---------------------------------------|
|---------------------------------------|
|---------------------------------------|
|-1~1(x15)-3(x10)-8-78-1~1(x15)--3(x16)-|

2:01
|---------------------------------------------------|
|---------------------------------------------------|
|---------------------------------------------------|
|-5(x8)-1(x8)-3(x8)-88887876-5(x8)-1(x8)-3(x12)-987-|

|---------------------------------------------------|
|---------------------------------------------------|
|---------------------------------------------------|
|-5~5(x7)-1(x8)-3~3(x7)-88887876-5(x8)-1(x8)-3(x16)-|

Solo
2:23
|-------------------------------------------------|----|
|o-----------------------------------------------o|----|
|o-----------------------------------------------o|----|
|--5(x8)-1(x8)-3(x8)-88887777-5(x8)-1(x8)-3(x16)--|-5~-|

2:56
|---------------------------------------------------|
|---------------------------------------------------|
|---------------------------------------------------|
|-5(x8)-1(x8)-3(x8)-88887876-5(x8)-1(x8)-3(x12)-987-|

|---------------------------------------------------|
|---------------------------------------------------|
|---------------------------------------------------|
|-5~5(x7)-1(x8)-3~3(x7)-88887876-5(x8)-1(x8)-3(x16)-|

|---------------------------------------------------|
|---------------------------------------------------|
|---------------------------------------------------|
|-5(x8)-1(x8)-3(x8)-88887876-5(x8)-1(x8)-3(x12)-333-|

|-------------------------------------------------------|
|-------------------------------------------------------|
|-------------------------------------------------------|
|-5(x8)-1(x8)-3(x8)-88887876-5(x8)-1(x8)-3(x8)-33-44-5\-|
Tabbed by Dave Vucko

==========================================================================

Love Isn't Always Fair

Intro
F#|-------------------------------------------------------------------|
C#|o-----------------------------------------------------------------o|
G#|o---------------------------------3-3-3-3-3-3-3-3-----------------o|
C#|--2-2-2-2-2-2-2-2-0-0-0-0-0-0-0-0-----------------2-2-2-2-0-0-0-0--|
     1 2 3 4 1 2 3 4 1 2 3 4 1 2 3 4 1 2 3 4 1 2 3 4 1 2 3 4 1 2 3 4

F#|-----------------------------------------------------------------|
C#|-----------------------------------------------------------------|
G#|-----------------------------------------------------------------|
C#|-2-------------------------------------------------------14-\----|
    1 + 2 + 3 + 4 + 1 + 2 + 3 + 4 + 1 + 2 + 3 + 4 + 1 + 2 + 3 + 4 +

0:23 Main Riff
F#|------------------------------------------------------------------|
C#|o-----------------------------------------------------------------|
G#|o-----------------------------------------------------------------|
C#|--2-0-2-0-2-5-2-0-0-0-0-0-0-0-0-2---0-2-0-2-5-2-0-7-5-2-5-4-5-4-2-|
     1 + 2 + 3 + 4 + 1 + 2 + 3 + 4 + 1 + 2 + 3 + 4 + 1 + 2 + 3 + 4 +

F#|------------------------------------------------------------------|-----------------|
C#|-----------------------------------------------------------------o|-----------------|
G#|-----------------------------------------------0---0-0-3---3-3---o|-2---------------|
C#|---0-2-0-2-5-2-0-0-0-0-0-0-0-0-2---2-2-5---5-5--------------------|-----------------|
    1 + 2 + 3 + 4 + 1 + 2 + 3 + 4 + 1 + 2 + 3 + 4 + 1 + 2 + 3 + 4 +    1 + 2 + 3 + 4 +

0:43 Verse
F#|------------------------------------------------------------------|
C#|o-----------------------------------------------------------------|
G#|o-----------------------------------------------------------------|
C#|--2-0-2-0-2-5-2-0-0-0-0-0-0-0-0-2---0-2-0-2-5-2-0-7-5-2-5-4-5-4-2-|
     1 + 2 + 3 + 4 + 1 + 2 + 3 + 4 + 1 + 2 + 3 + 4 + 1 + 2 + 3 + 4 +

F#|------------------------------------------------------------------|-----------------|
C#|-----------------------------------------------------------------o|-----------------|
G#|-----------------------------------------------0---0-0-3---3-3---o|-2---------------|
C#|---0-2-0-2-5-2-0-0-0-0-0-0-0-0-2---2-2-5---5-5--------------------|-----------------|
    1 + 2 + 3 + 4 + 1 + 2 + 3 + 4 + 1 + 2 + 3 + 4 + 1 + 2 + 3 + 4 +    1 + 2 + 3 + 4 +

1:04 Chorus
F#|------------------------------------------------------------------|
C#|o-----------------------------------------------------------------|
G#|o-----------------------------------------------------------------|
C#|--2---2---2---2---2---2---2---2---5---5---5---5---5---5---5---5---|
     1 + 2 + 3 + 4 + 1 + 2 + 3 + 4 + 1 + 2 + 3 + 4 + 1 + 2 + 3 + 4 +

F#|------------------------------------------------------------------|
C#|-----------------------------------------------------------------o|
G#|---------------------------------4-4-4-4-4-4-4-4-3-3-3-3-5-5-5-5-o|
C#|-0---0---0---0---0---0---0---0------------------------------------|
    1 + 2 + 3 + 4 + 1 + 2 + 3 + 4 + 1 + 2 + 3 + 4 + 1 + 2 + 3 + 4 +

1:23 Interlude
F#|-----------------------------------------------------------------|
C#|-----------------------------------------------------------------|
G#|-----------------------------------------------------------------|
C#|-2-0-2-0-2-5-2-0-0-0-0-0-0-0-0-0-2-0-2-0-2-5-2-0-7---5---4-5-4-0-|
    1 + 2 + 3 + 4 + 1 + 2 + 3 + 4 + 1 + 2 + 3 + 4 + 1 + 2 + 3 + 4 +

1:28 Verse
F#|-----------------------------------------------------------------|
C#|-----------------------------------------------------------------|
G#|-----------------------------------------------------------------|
C#|-2---2-0-2-5-2-0-----------------2-0-2-0-2-5-2-0-7---5---4-5-4-0-|
    1 + 2 + 3 + 4 + 1 + 2 + 3 + 4 + 1 + 2 + 3 + 4 + 1 + 2 + 3 + 4 +

F#|-----------------------------------------------------------------|
C#|-----------------------------------------------------------------|
G#|-----------------------------------------------0---0-0-3---3-3---|
C#|-2---2-0-2-5-2-0---------------2---2-2-5---5-5-------------------|
    1 + 2 + 3 + 4 + 1 + 2 + 3 + 4 + 1 + 2 + 3 + 4 + 1 + 2 + 3 + 4 +

F#|-----------------------------------------------------------------|
C#|-----------------------------------------------------------------|
G#|-----------------------------------------------------------------|
C#|-2-0-2-0-2-5-2-0-0-0-0-0-0-0-0-0-2-0-2-0-2-5-2-0-7---5---4-5-4-0-|
    1 + 2 + 3 + 4 + 1 + 2 + 3 + 4 + 1 + 2 + 3 + 4 + 1 + 2 + 3 + 4 +

F#|-----------------------------------------------------------------|-----------------|
C#|-----------------------------------------------------------------|-----------------|
G#|-----------------------------------------------0---0-0-3---3-3---|-2-----2-2---2---|
C#|-2-0-2-0-2-5-2-0-0-0-0-0-0-0-0-2---2-2-5---5-5-------------------|-----------------|
    1 + 2 + 3 + 4 + 1 + 2 + 3 + 4 + 1 + 2 + 3 + 4 + 1 + 2 + 3 + 4 +   1 + 2 + 3 + 4 +

1:49 Chorus
F#|------------------------------------------------------------------|
C#|o-----------------------------------------------------------------|
G#|o-----------------------------------------------------------------|
C#|--2---2---2---2---2---2---2---2---5---5---5---5---5---5---5---5---|
     1 + 2 + 3 + 4 + 1 + 2 + 3 + 4 + 1 + 2 + 3 + 4 + 1 + 2 + 3 + 4 +

F#|------------------------------------------------------------------|
C#|-----------------------------------------------------------------o|
G#|---------------------------------4-4-4-4-4-4-4-4-3-3-3-3-5-5-5-5-o|
C#|-0---0---0---0---0---0---0---0------------------------------------|
    1 + 2 + 3 + 4 + 1 + 2 + 3 + 4 + 1 + 2 + 3 + 4 + 1 + 2 + 3 + 4 +

2:08 Interlude
F#|-----------------------------------------------------------------|
C#|-----------------------------------------------------------------|
G#|-----------------------------------------------------------------|
C#|-2-0-2-0-2-5-2-0-0-0-0-0-0-0-0-0-2-0-2-0-2-5-2-0-7---5---4-5-4-0-|
    1 + 2 + 3 + 4 + 1 + 2 + 3 + 4 + 1 + 2 + 3 + 4 + 1 + 2 + 3 + 4 +

2:13 Verse
F#|------------------------------------------------------------------|
C#|o-----------------------------------------------------------------|
G#|o-----------------------------------------------------------------|
C#|--2---2-2-2-2---------2-2-2-2-----2---2-2-2-2---------2-2-2-2-----|
     1 + 2 + 3 + 4 + 1 + 2 + 3 + 4 + 1 + 2 + 3 + 4 + 1 + 2 + 3 + 4 +

F#|------------------------------------------------------------------|
C#|-----------------------------------------------------------------o|
G#|-----------------------------------------------------------------o|
C#|-2---2-2-2-2---------2-2-2-2-----0---0-0-0-0---------5-5-5-5------|
    1 + 2 + 3 + 4 + 1 + 2 + 3 + 4 + 1 + 2 + 3 + 4 + 1 + 2 + 3 + 4 +

2:32 Pre Solo
F#|-----------------------------------------------------------------|
C#|-----------------------------------------------------------------|
G#|-----------------------------------------------------------------|
C#|-2-------------------------------0-------------------------------|
    1 + 2 + 3 + 4 + 1 + 2 + 3 + 4 + 1 + 2 + 3 + 4 + 1 + 2 + 3 + 4 +

F#|-----------------------------------------------------------------|
C#|-----------------------------------------------------------------|
G#|-3---------------------------------------------------------------|
C#|---------------------------------2---------------5---------------|
    1 + 2 + 3 + 4 + 1 + 2 + 3 + 4 + 1 + 2 + 3 + 4 + 1 + 2 + 3 + 4 +

2:42 Solo
F#|-----------------------------------------------------------------|
C#|-----------------------------------------------------------------|
G#|-----------------------------------------------------------------|
C#|-2---2-2-2-2---2-2---2-2-2-2---2-0---0-0-0-0---0-0---0-0-0-0---0-|
    1 + 2 + 3 + 4 + 1 + 2 + 3 + 4 + 1 + 2 + 3 + 4 + 1 + 2 + 3 + 4 +

F#|-----------------------------------------------------------------|
C#|-----------------------------------------------------------------|
G#|-3-3-3-3-3-3-3-3-3-3-3-3-3-3-3-3---------------------------------|
C#|---------------------------------2-2-2-2-2-2-2-2-5-5-5-5-5-5-5-5-|
    1 + 2 + 3 + 4 + 1 + 2 + 3 + 4 + 1 + 2 + 3 + 4 + 1 + 2 + 3 + 4 +

2:51
F#|-----------------------------------------------------------------|
C#|-----------------------------------------------------------------|
G#|-----------------------------------------------------------------|
C#|-2-2-2-2-2-2-2-2-2-2-2-2-2-2-2-2-0-0-0-0-0-0-0-0-0-0-0-0-0-0-0-0-|
    1 + 2 + 3 + 4 + 1 + 2 + 3 + 4 + 1 + 2 + 3 + 4 + 1 + 2 + 3 + 4 +

F#|-----------------------------------------------------------------|
C#|-----------------------------------------------------------------|
G#|-----------------2-2-2-2-2-2-2-2-----2-----3-----5---2---2-2-----|
C#|-5-5-5-5-5-5-5-5-----------------2-2-------------------------5-4-|
    1 + 2 + 3 + 4 + 1 + 2 + 3 + 4 + 1 + 2 + 3 + 4 + 1 + 2 + 3 + 4 +

2:51
F#|-----------------------------------------------------------------|
C#|-----------------------------------------------------------------|
G#|-----------------------------------------------------------------|
C#|-2-2-2-2-2-2-2-2-2-2-2-2-2-2-2-2-0-0-0-0-0-0-0-0-0-0-0-0-0-0-0-0-|
    1 + 2 + 3 + 4 + 1 + 2 + 3 + 4 + 1 + 2 + 3 + 4 + 1 + 2 + 3 + 4 +

F#|-----------------------------------------------------------------|
C#|-----------------------------------------------------------------|
G#|-----------------2-2-2-2-2-2-2-2-----2-----3-----5---2---2-2-2-2-|
C#|-5-5-5-5-5-5-5-5-----------------2-2-----------------------------|
    1 + 2 + 3 + 4 + 1 + 2 + 3 + 4 + 1 + 2 + 3 + 4 + 1 + 2 + 3 + 4 +

F#|---------------------------------|
C#|---------------------------------|
G#|-----2-----3-----5---2---2-2-----|
C#|-2-2-----------------------------|
    1 + 2 + 3 + 4 + 1 + 2 + 3 + 4 +

3:13
F#|-------------------------------------------------------------------|
C#|o-----------------------------------------------------------------o|
G#|o-----------------0-0-0-0-3-3-3-3-----------------0-0-0-0-3-3-3-3-o|
C#|--2-2-2-2-5-5-5-5-----------------2-2-2-2-5-5-5-5------------------|
     1 + 2 + 3 + 4 + 1 + 2 + 3 + 4 + 1 + 2 + 3 + 4 + 1 + 2 + 3 + 4 +

F#|---------------------------------|
C#|---------------------------------|
G#|-2-------------------------------|
C#|---------------------------------|
    1 + 2 + 3 + 4 + 1 + 2 + 3 + 4 +

3:24 Chorus
F#|------------------------------------------------------------------|
C#|o-----------------------------------------------------------------|
G#|o-----------------------------------------------------------------|
C#|--2---2---2---2---2---2---2---2---5---5---5---5---5---5---5---5---|
     1 + 2 + 3 + 4 + 1 + 2 + 3 + 4 + 1 + 2 + 3 + 4 + 1 + 2 + 3 + 4 +

F#|------------------------------------------------------------------|
C#|-----------------------------------------------------------------o|
G#|---------------------------------4-4-4-4-4-4-4-4-3-3-3-3-5-5-5-5-o|
C#|-0---0---0---0---0---0---0---0------------------------------------|
    1 + 2 + 3 + 4 + 1 + 2 + 3 + 4 + 1 + 2 + 3 + 4 + 1 + 2 + 3 + 4 +

3:44
F#|------------------------------------------------------------------o|
C#|o-----------------------------------------------------------------o|
G#|o-------------------------------4---4-4-4-4-4-4-3---3-3-5-5-5-5-2-o|
C#|--2-2-2-2-2-2-2-0---0-0-0-0-0-0------------------------------------|
     1 + 2 + 3 + 4 + 1 + 2 + 3 + 4 + 1 + 2 + 3 + 4 + 1 + 2 + 3 + 4 +

3:54
F#|------------------------------------------------------------------o|
C#|o-----------------------------------------------------------------o|
G#|o-------------------------------4-4-4-4-4-4-4-4-3-3-3-3-5-5-5-5-2-o|
C#|--2-2-2-2-2-2-2-0-0-0-0-0-0-0-0------------------------------------|
     1 + 2 + 3 + 4 + 1 + 2 + 3 + 4 + 1 + 2 + 3 + 4 + 1 + 2 + 3 + 4 +

4:03
F#|-----------------------------------------------------------------|
C#|-----------------------------------------------------------------|
G#|-----------------------------------------------------------------|
C#|-2-0-2-0-2-5-2-0-0-0-0-0-0-0-0-0-2-0-2-0-2-5-2-0-5-4-2-4---5---2-|
    1 + 2 + 3 + 4 + 1 + 2 + 3 + 4 + 1 + 2 + 3 + 4 + 1 + 2 + 3 + 4 +
Tabbed by Dave Vucko

===================================================================================

God Bless You

Intro
F#|-----------------------------------------------------------------|
C#|-----------------------------------------------------------------|
G#|-----------------------------------------------------------------|
C#|-0-0-3-0---0-3-0-6-6-5-3-5-3-3-0---0-3-0-3-0---0-6-6-5-3-5-3-3-0-|
    1 + 2 + 3 + 4 + 1 + 2 + 3 + 4 + 1 + 2 + 3 + 4 + 1 + 2 + 3 + 4 +

F#|-----------------------------------------------------------------|
C#|-----------------------------------------------------------------|
G#|-----------------------------------------------------------------|
C#|---0-3-0-3-0---0-6-6-5-3-5-3-3-0---0-3-0-3-0---0-6-6-5-3-5-3-3-0-|
    1 + 2 + 3 + 4 + 1 + 2 + 3 + 4 + 1 + 2 + 3 + 4 + 1 + 2 + 3 + 4 +

0:15 Verse
F#|-------------------------------------------------------------------|
C#|o-----------------------------------------------------------------o|
G#|o-----------------------------------------------------------------o|
C#|----0---0---0---0---0---0-3-0-5-0---0---0---0---0-6-6-5-3-5-3-3-0--|
     1 + 2 + 3 + 4 + 1 + 2 + 3 + 4 + 1 + 2 + 3 + 4 + 1 + 2 + 3 + 4 +

Pre Chorus 0:30
F#|-----------------------------------------------------------------|
C#|-----------------------------------------------------------------|
G#|-----------------------------------------------------------------|
C#|-0-0-0-0-0-0-0-0-2-2-2-2-2-2-2-2-3-3-3-3-3-3-3-3-5-5-5-5-5-5-5-5-|
    1 + 2 + 3 + 4 + 1 + 2 + 3 + 4 + 1 + 2 + 3 + 4 + 1 + 2 + 3 + 4 +

F#|-----------------------------------------------------------------|
C#|-----------------------------------------------------------------|
G#|-----------------------------------------------------------------|
C#|-0-0-0-0-0-0-0-0-2-2-2-2-2-2-2-2-3-3-3-3-3-3-3-3-5-r-------------|
    1 + 2 + 3 + 4 + 1 + 2 + 3 + 4 + 1 + 2 + 3 + 4 + 1 + 2 + 3 + 4 +

Chorus 0:45
F#|-----------------------------------------------------------------|
C#|-----------------------------------------------------------------|
G#|-----------------0-0-0-0-0-0-0-0-1-1-1-1-1-1-1-1-----------------|
C#|-0-0-0-0-0-0-0-0-----------------------------------5-5-5---3-3-3-|
    1 + 2 + 3 + 4 + 1 + 2 + 3 + 4 + 1 + 2 + 3 + 4 + 1 + 2 + 3 + 4 +

F#|-----------------------------------------------------------------|
C#|-----------------------------------------------------------------|
G#|-----------------0-0-0-0-0-0-0-0-1-1-1-1-1-1-1-1-----------------|
C#|-0-0-0-0-0-0-0-0-----------------------------------5-5-5---------|
    1 + 2 + 3 + 4 + 1 + 2 + 3 + 4 + 1 + 2 + 3 + 4 + 1 + 2 + 3 + 4 +

Interlude 1:00
F#|-----------------------------------------------------------------|
C#|-----------------------------------------------------------------|
G#|-----------------------------------------------------------------|
C#|-0-0-3-0---0-3-0-6-6-5-3-5-3-3-0---0-3-0-3-0---0-6-6-5-3-5-3-3-0-|
    1 + 2 + 3 + 4 + 1 + 2 + 3 + 4 + 1 + 2 + 3 + 4 + 1 + 2 + 3 + 4 +

Verse 1:09
F#|-------------------------------------------------------------------|
C#|o-----------------------------------------------------------------o|
G#|o-----------------------------------------------------------------o|
C#|----0---0---0---0---0---0-3-0-5-0---0---0---0---0-6-6-5-3-5-3-3-0--|
     1 + 2 + 3 + 4 + 1 + 2 + 3 + 4 + 1 + 2 + 3 + 4 + 1 + 2 + 3 + 4 +

Pre Chorus
1:24
F#|-----------------------------------------------------------------|
C#|-----------------------------------------------------------------|
G#|-----------------------------------------------------------------|
C#|-0-0-0-0-0-0-0-0-2-2-2-2-2-2-2-2-3-3-3-3-3-3-3-3-5-5-5-5-5-5-5-5-|
    1 + 2 + 3 + 4 + 1 + 2 + 3 + 4 + 1 + 2 + 3 + 4 + 1 + 2 + 3 + 4 +

F#|---------------------------------|
C#|---------------------------------|
G#|---------------------------------|
C#|-5-------------------------------|
    1 + 2 + 3 + 4 + 1 + 2 + 3 + 4 +

Chorus 1:34
F#|-----------------------------------------------------------------|
C#|-----------------------------------------------------------------|
G#|-----------------0-0-0-0-0-0-0-0-1-1-1-1-1-1-1-1-----------------|
C#|-0-0-0-0-0-0-0-0-----------------------------------5-5-5---3-3-3-|
    1 + 2 + 3 + 4 + 1 + 2 + 3 + 4 + 1 + 2 + 3 + 4 + 1 + 2 + 3 + 4 +

F#|-----------------------------------------------------------------|
C#|-----------------------------------------------------------------|
G#|-----------------0-0-0-0-0-0-0-0-1-1-1-1-1-1-1-1-----------------|
C#|-0-0-0-0-0-0-0-0-----------------------------------5-5-5---------|
    1 + 2 + 3 + 4 + 1 + 2 + 3 + 4 + 1 + 2 + 3 + 4 + 1 + 2 + 3 + 4 +

Solo 1:49
F#|-------------------------------------------------------------------|
C#|o-----------------------------------------------------------------o|
G#|o-----------------------------------------------------------------o|x3
C#|--0-0---0-3-2-0---0-2-0-2-3-2-0-2-0-0---0-3-2-0---0-5-0-3-0-2-3-5--|
     1 + 2 + 3 + 4 + 1 + 2 + 3 + 4 + 1 + 2 + 3 + 4 + 1 + 2 + 3 + 4 +

Pre Chorus 2:12
F#|-----------------------------------------------------------------|
C#|-----------------------------------------------------------------|
G#|-----------------------------------------------------------------|
C#|-0-0-0-0-0-0-0-0-2-2-2-2-2-2-2-2-3-3-3-3-3-3-3-3-5-5-5-5-5-5-5-5-|
    1 + 2 + 3 + 4 + 1 + 2 + 3 + 4 + 1 + 2 + 3 + 4 + 1 + 2 + 3 + 4 +

F#|-----------------------------------------------------------------|
C#|-----------------------------------------------------------------|
G#|-----------------------------------------------------------------|
C#|-0-0-0-0-0-0-0-0-2-2-2-2-2-2-2-2-3-3-3-3-3-3-3-3-5-b-------------|
    1 + 2 + 3 + 4 + 1 + 2 + 3 + 4 + 1 + 2 + 3 + 4 + 1 + 2 + 3 + 4 +

Chorus 2:28
F#|-------------------------------------------------------------------|
C#|o-----------------------------------------------------------------o|
G#|o-----------------0-0-0-0-0-0-0-0-1-1-1-1-1-1-1-1-----------------o|x3
C#|--0-0-0-0-0-0-0-0-----------------------------------5-5-5---3-3-3--|
     1 + 2 + 3 + 4 + 1 + 2 + 3 + 4 + 1 + 2 + 3 + 4 + 1 + 2 + 3 + 4 +

F#|-----------------------------------------------------------------|
C#|-----------------------------------------------------------------|
G#|-----------------0-0-0-0-0-0-0-0-1-1-1-1-1-1-1-1-----------------|
C#|-0-0-0-0-0-0-0-0-----------------------------------5-5-5---------|
    1 + 2 + 3 + 4 + 1 + 2 + 3 + 4 + 1 + 2 + 3 + 4 + 1 + 2 + 3 + 4 +

Outro 2:59
F#|-----------------------------------------------------------------|
C#|-----------------------------------------------------------------|
G#|-----------------------------------------------------------------|
C#|-0-0-3-0---0-3-0-6-6-5-3-5-3-3-0---0-3-0-3-0---0-6-6-5-3-5-3-3-0-|
    1 + 2 + 3 + 4 + 1 + 2 + 3 + 4 + 1 + 2 + 3 + 4 + 1 + 2 + 3 + 4 +

F#|-----------------------------------------------------------------|
C#|-----------------------------------------------------------------|
G#|-----------------------------------------------------------------|
C#|---0-3-0-3-0---0-6-6-5-3-5-3-3-0---0-3-0-3-0---0-6-6-5-3-5-3-3---|
    1 + 2 + 3 + 4 + 1 + 2 + 3 + 4 + 1 + 2 + 3 + 4 + 1 + 2 + 3 + 4 +
Tabbed by Dave Vucko

==========================================================================

Rebel Love Song

Intro
F#|-------------------------------------------------------------------------------------------------|
C#|-------------------------------------------------------------------------------------------------|
G#|-4-2-2-2-2-2-2-2-4-2-5-2-4-2-0-0-2-2-2-2-2-2-2-2-2-2-2-2-2-2-2-2---------------------------------|
C#|-----------------------------------------------------------------5-5-5-5-5-5-5-5-2-2-2-2-2-2-2-2-|
    1 + 2 + 3 + 4 + 1 + 2 + 3 + 4 + 1 + 2 + 3 + 4 + 1 + 2 + 3 + 4 + 1 + 2 + 3 + 4 + 1 + 2 + 3 + 4 +

F#|-------------------------------------------------------------------|
C#|o-----------------------------------------------------------------o|
G#|o-2-2-2-2-2-2-2-2-2-2-2-2-2-2-2-2---------------------------------o|
C#|----------------------------------5-5-5-5-5-5-5-5-2-2-2-2-2-2-2-2--|
     1 + 2 + 3 + 4 + 1 + 2 + 3 + 4 + 1 + 2 + 3 + 4 + 1 + 2 + 3 + 4 +

F#|-------------------------------------------------------------------------------------------------|
C#|-------------------------------------------------------------------------------------------------|
G#|-0-0-0-0-0-0-0-0-0-0-0-0-0-0-0-0---------------------------------2-2-5-2-4-2-0-2-----------------|
C#|---------------------------------5-5-5-5-5-5-5-5---4-4---4-4-4-----------------------------------|
    1 + 2 + 3 + 4 + 1 + 2 + 3 + 4 + 1 + 2 + 3 + 4 + 1 + 2 + 3 + 4 + 1 + 2 + 3 + 4 + 1 + 2 + 3 + 4 +

Verse
0:24
F#|-----------------------------------------------------------------|
C#|-----------------------------------------------------------------|
G#|-2-2-2-2-2-2-2-2-2-2-2-2-2-2-2-2---------------------4-------0-4-|
C#|---------------------------------5-5-5-5-5-5-5-5-2-2-----2-2-----|
    1 + 2 + 3 + 4 + 1 + 2 + 3 + 4 + 1 + 2 + 3 + 4 + 1 + 2 + 3 + 4 +

F#|-----------------------------------------------------------------|
C#|-----------------------------------------------------------------|
G#|-2-2-2-2-2-2-2-2-2-2-2-2-2-2-2-2---------------------------4-----|
C#|---------------------------------5-5-5-5-5-5-5-5-4-4-4-4-4-------|
    1 + 2 + 3 + 4 + 1 + 2 + 3 + 4 + 1 + 2 + 3 + 4 + 1 + 2 + 3 + 4 +

F#|-----------------------------------------------------------------|
C#|-----------------------------------------------------------------|
G#|-2-2-2-2-2-2-2-2-2-2-2-2-2-2-2-2---------------------4-------0-4-|
C#|---------------------------------5-5-5-5-5-5-5-5-2-2-----2-2-----|
    1 + 2 + 3 + 4 + 1 + 2 + 3 + 4 + 1 + 2 + 3 + 4 + 1 + 2 + 3 + 4 +

F#|-----------------------------------------------------------------|
C#|-----------------------------------------------------------------|
G#|-2-2-2-2-2-2-2-2-2-2-2-2-2-2-2-2---------------------------4-4---|
C#|---------------------------------5-5-5-5-5-5-5-5-4-4-4-4-4-------|
    1 + 2 + 3 + 4 + 1 + 2 + 3 + 4 + 1 + 2 + 3 + 4 + 1 + 2 + 3 + 4 +

PreChorus
0:44
F#|-----------------------------------------------------------------|
C#|-----------------0-0-2-0-4-0-2-0-----------------0-0-2-0-4-0-2-0-|
G#|-2-2-2-2-2-2-2-2-------------------------------------------------|
C#|---------------------------------5-5-5-5-5-5-5-5-----------------|
    1 + 2 + 3 + 4 + 1 + 2 + 3 + 4 + 1 + 2 + 3 + 4 + 1 + 2 + 3 + 4 +

F#|-----------------------------------------------------------------|
C#|-----------------0-0-2-0-4-0-2-0-----------------0-0-2-0-4-0-2-0-|
G#|---------------------------------0-0-0-0-0-0-0-0-----------------|
C#|-2-2-2-2-2-2-2-2-------------------------------------------------|
    1 + 2 + 3 + 4 + 1 + 2 + 3 + 4 + 1 + 2 + 3 + 4 + 1 + 2 + 3 + 4 +

Chorus
0:53
F#|-----------------------------------------------------------------|
C#|-----------------------------------------------------------------|
G#|---------------------------------0-0-0-0-0-0-0-0-0-0-0-0-0-0-0-0-|
C#|-0-0-0-0-0-0-0-0-0-0-0-0-0-0-0-0---------------------------------|
    1 + 2 + 3 + 4 + 1 + 2 + 3 + 4 + 1 + 2 + 3 + 4 + 1 + 2 + 3 + 4 +

F#|-----------------------------------------------------------------|
C#|-----------------------------------------------------------------|
G#|-2-2-2-2-2-2-2-2-2-2-2-2-2-2-2-2---------------------------------|
C#|---------------------------------5-5-5-5-5-5-5-5-5-5-5-5-5-5-5-5-|
    1 + 2 + 3 + 4 + 1 + 2 + 3 + 4 + 1 + 2 + 3 + 4 + 1 + 2 + 3 + 4 +

F#|-----------------------------------------------------------------|
C#|-----------------------------------------------------------------|
G#|---------------------------------0-0-0-0-0-0-0-0-0-0-0-0-0-0-0-0-|
C#|-0-0-0-0-0-0-0-0-0-0-0-0-0-0-0-0---------------------------------|
    1 + 2 + 3 + 4 + 1 + 2 + 3 + 4 + 1 + 2 + 3 + 4 + 1 + 2 + 3 + 4 +

F#|-------------------------------------------------------------------------------------------------|
C#|-------------------------------------------------------------------------------------------------|
G#|---------------------------------2-2-2-2-2-2-2-0---0-0---0-0-0---2-2-5-2-4-2-0-------------------|
C#|-5-5-5-5-5-5-5-5-5-5-5-5-5-5-5-5-----------------------------------------------9-\---------------|
    1 + 2 + 3 + 4 + 1 + 2 + 3 + 4 + 1 + 2 + 3 + 4 + 1 + 2 + 3 + 4 + 1 + 2 + 3 + 4 + 1 + 2 + 3 + 4 +

Verse
1:15
F#|-----------------------------------------------------------------|
C#|-----------------------------------------------------------------|
G#|-2-2-2-2-2-2-2-2-2-2-2-2-2-2-2-2---------------------4-------0-4-|
C#|---------------------------------5-5-5-5-5-5-5-5-2-2-----2-2-----|
    1 + 2 + 3 + 4 + 1 + 2 + 3 + 4 + 1 + 2 + 3 + 4 + 1 + 2 + 3 + 4 +

F#|-----------------------------------------------------------------|
C#|-----------------------------------------------------------------|
G#|-2-2-2-2-2-2-2-2-2-2-2-2-2-2-2-2---------------------------4-----|
C#|---------------------------------5-5-5-5-5-5-5-5-4-4-4-4-4-------|
    1 + 2 + 3 + 4 + 1 + 2 + 3 + 4 + 1 + 2 + 3 + 4 + 1 + 2 + 3 + 4 +

F#|-----------------------------------------------------------------|
C#|-----------------------------------------------------------------|
G#|-2-2-2-2-2-2-2-2-2-2-2-2-2-2-2-2---------------------4-------0-4-|
C#|---------------------------------5-5-5-5-5-5-5-5-2-2-----2-2-----|
    1 + 2 + 3 + 4 + 1 + 2 + 3 + 4 + 1 + 2 + 3 + 4 + 1 + 2 + 3 + 4 +

F#|-----------------------------------------------------------------|
C#|-----------------------------------------------------------------|
G#|-2-2-2-2-2-2-2-2-2-2-2-2-2-2-2-2---------------------------4-4---|
C#|---------------------------------5-5-5-5-5-5-5-5-4-4-4-4-4-------|
    1 + 2 + 3 + 4 + 1 + 2 + 3 + 4 + 1 + 2 + 3 + 4 + 1 + 2 + 3 + 4 +

PreChorus 1:35
F#|-----------------------------------------------------------------|
C#|-----------------0-0-2-0-4-0-2-0-----------------0-0-2-0-4-0-2-0-|
G#|-2-2-2-2-2-2-2-2-------------------------------------------------|
C#|---------------------------------5-5-5-5-5-5-5-5-----------------|
    1 + 2 + 3 + 4 + 1 + 2 + 3 + 4 + 1 + 2 + 3 + 4 + 1 + 2 + 3 + 4 +

F#|-----------------------------------------------------------------|
C#|-----------------0-0-2-0-4-0-2-0-----------------0-0-2-0-4-0-2-0-|
G#|---------------------------------0-0-0-0-0-0-0-0-----------------|
C#|-2-2-2-2-2-2-2-2-------------------------------------------------|
    1 + 2 + 3 + 4 + 1 + 2 + 3 + 4 + 1 + 2 + 3 + 4 + 1 + 2 + 3 + 4 +

Chorus
1:45
F#|-----------------------------------------------------------------|
C#|-----------------------------------------------------------------|
G#|---------------------------------0-0-0-0-0-0-0-0-0-0-0-0-0-0-0-0-|
C#|-0-0-0-0-0-0-0-0-0-0-0-0-0-0-0-0---------------------------------|
    1 + 2 + 3 + 4 + 1 + 2 + 3 + 4 + 1 + 2 + 3 + 4 + 1 + 2 + 3 + 4 +

F#|-----------------------------------------------------------------|
C#|-----------------------------------------------------------------|
G#|-2-2-2-2-2-2-2-2-2-2-2-2-2-2-2-2---------------------------------|
C#|---------------------------------5-5-5-5-5-5-5-5-5-5-5-5-5-5-5-5-|
    1 + 2 + 3 + 4 + 1 + 2 + 3 + 4 + 1 + 2 + 3 + 4 + 1 + 2 + 3 + 4 +

F#|-----------------------------------------------------------------|
C#|-----------------------------------------------------------------|
G#|---------------------------------0-0-0-0-0-0-0-0-0-0-0-0-0-0-0-0-|
C#|-0-0-0-0-0-0-0-0-0-0-0-0-0-0-0-0---------------------------------|
    1 + 2 + 3 + 4 + 1 + 2 + 3 + 4 + 1 + 2 + 3 + 4 + 1 + 2 + 3 + 4 +

F#|-----------------------------------------------------------------|
C#|-----------------------------------------------------------------|
G#|---------------------------------2-2-2-2-2-2-2-0---0-0---0-0-0---|
C#|-5-5-5-5-5-5-5-5-5-5-5-5-5-5-5-5---------------------------------|
    1 + 2 + 3 + 4 + 1 + 2 + 3 + 4 + 1 + 2 + 3 + 4 + 1 + 2 + 3 + 4 +

Breakdown
2:05
F#|-----------------------------------------------------------------|
C#|-----------------------------------------------------------------|
G#|-2-2-2---2---2---2---2-2-2-----------------------0---0---0---0---|
C#|-----------------------------4---5---5-5-5---5-------------------|
    1 + 2 + 3 + 4 + 1 + 2 + 3 + 4 + 1 + 2 + 3 + 4 + 1 + 2 + 3 + 4 +

F#|-----------------------------------------------------------------|
C#|-----------------------------------------------------------------|
G#|-2-2-2---2---2---2---2-2-2-----------------------0-0-0-0-0-0-0-0-|
C#|-----------------------------4---5-5-5-5-5-5-5-5-----------------|
    1 + 2 + 3 + 4 + 1 + 2 + 3 + 4 + 1 + 2 + 3 + 4 + 1 + 2 + 3 + 4 +

2:15
F#|-----------------------------------------------------------------|
C#|-----------------------------------------------------------------|
G#|-2---2-2-2-2---2-5---5---5---5-----------------------------------|
C#|---------------------------------5-----5-5---5-----4-4---4---4---|
    1 + 2 + 3 + 4 + 1 + 2 + 3 + 4 + 1 + 2 + 3 + 4 + 1 + 2 + 3 + 4 +

F#|-----------------------------------------------------------------|
C#|-----------------------------------------------------------------|
G#|-2---2-2-2---2---5---5---5---5-------------------0-0-0-0-0-0-0-0-|
C#|---------------------------------5-5-5-5-5-5-5-5-----------------|
    1 + 2 + 3 + 4 + 1 + 2 + 3 + 4 + 1 + 2 + 3 + 4 + 1 + 2 + 3 + 4 +

Solo
2:24
F#|-------------------------------------------------------------------|
C#|o-----------------------------------------------------------------o|
G#|o-2-2-2-2-2-2-2-2-2-2-2-2-2-2-2-2---------------------------------o|x3
C#|----------------------------------5-5-5-5-5-5-5-5-2-2-2-2-2-2-2-2--|
     1 + 2 + 3 + 4 + 1 + 2 + 3 + 4 + 1 + 2 + 3 + 4 + 1 + 2 + 3 + 4 +

F#|-----------------------------------------------------------------|
C#|-----------------------------------------------------------------|
G#|-0-0-0-0-0-0-0-0-0-0-0-0-0-0-0-0---------------------------------|
C#|---------------------------------5-5-5-5-5-5-5-5---4-4---4-4-4---|
    1 + 2 + 3 + 4 + 1 + 2 + 3 + 4 + 1 + 2 + 3 + 4 + 1 + 2 + 3 + 4 + 

*Break*(PreChorus)

Chorus 2:54
F#|------------------------------------------------------------------|
C#|o-----------------------------------------------------------------|
G#|o---------------------------------0-0-0-0-0-0-0-0-0-0-0-0-0-0-0-0-|
C#|--0-0-0-0-0-0-0-0-0-0-0-0-0-0-0-0---------------------------------|
     1 + 2 + 3 + 4 + 1 + 2 + 3 + 4 + 1 + 2 + 3 + 4 + 1 + 2 + 3 + 4 +

F#|-----------------------------------------------------------------|
C#|-----------------------------------------------------------------|
G#|-2-2-2-2-2-2-2-2-2-2-2-2-2-2-2-2---------------------------------|
C#|---------------------------------5-5-5-5-5-5-5-5-5-5-5-5-5-5-5-5-|
    1 + 2 + 3 + 4 + 1 + 2 + 3 + 4 + 1 + 2 + 3 + 4 + 1 + 2 + 3 + 4 +

F#|-----------------------------------------------------------------|
C#|-----------------------------------------------------------------|
G#|---------------------------------0-0-0-0-0-0-0-0-0-0-0-0-0-0-0-0-|
C#|-0-0-0-0-0-0-0-0-0-0-0-0-0-0-0-0---------------------------------|
    1 + 2 + 3 + 4 + 1 + 2 + 3 + 4 + 1 + 2 + 3 + 4 + 1 + 2 + 3 + 4 +

F#|------------------------------------------------------------------|
C#|-----------------------------------------------------------------o|
G#|---------------------------------2-2-2-2-2-2-2-0---0-0---0-0-0---o|
C#|-5-5-5-5-5-5-5-5-5-5-5-5-5-5-5-5----------------------------------|
    1 + 2 + 3 + 4 + 1 + 2 + 3 + 4 + 1 + 2 + 3 + 4 + 1 + 2 + 3 + 4 +

Outro
3:33
F#|-----------------------------------------------------------------|
C#|-----------------------------------------------------------------|
G#|-2-2-2-------------------0---5---2-2-2---------------------------|
C#|-------5-5-5-2-2---0-------------------5-5-5-2-2---0---0-0-0-0-0-|
    1 + 2 + 3 + 4 + 1 + 2 + 3 + 4 + 1 + 2 + 3 + 4 + 1 + 2 + 3 + 4 +

F#|---------------------------------------------------------------------------------|
C#|---------------------------------------------------------------------------------|
G#|-2-2-2-------------------0---5---2-2-2---------------------------0---------------|
C#|-------5-5-5-2-2---0-------------------5-5-5-2-2---0---0-0-0-0-0---5-4-2-0-------|
    1 + 2 + 3 + 4 + 1 + 2 + 3 + 4 + 1 + 2 + 3 + 4 + 1 + 2 + 3 + 4 + 1 + 2 + 3 + 4 +
Tabbed by Dave Vucko

==========================================================================================

Savior

Intro        x4
F#|------------|--------------------------|
C#|o-2-2------o|-2-2-----2~~~2~~~2~~~2~~~-|
G#|o----53-35-o|----53-35-----------------|
C#|------------|--------------------------|

0:39
|---------------------------|
|-2-----4--5-4-2-----4--5-4-|
|----3------------3---------|
|---------------------------|

|---------------------------|
|-2-----4--5-4-2-----4--5-7-|
|----3------------3---------|
|---------------------------|

1:05
|-------------------|
|----------------54-|
|-3-5----2--3-5-----|
|-----245-----------|

1:16
|--------------------------------------------|
|-2-------2---5-4-2-------2-------2----------|
|---3-5-2---3-------3-5-2---3--------5-3-3-5-|
|-----------------------------5-4------------|

1:42
|---------------------------|
|-2-----4--5-4-2-----4--5-4-|
|----3------------3---------|
|---------------------------|

|---------------------------|
|-2-----4--5-4-2-----4--5-7-|
|----3------------3---------|
|---------------------------|

2:09
|-------------------|
|----------------54-|
|-3-5----2--3-5-----|
|-----245-----------|

2:19
|---------------------------------|
|-2-------2---5-4-2-------2-------|
|---3-5-2---3-------3-5-2---3-----|
|-----------------------------5-4-|

2:38
|---------------------------------------------------------|
|----------4--5--4--2--------------4--5--4--2----------54-|
|-0--2--3--------------5--0--2--3--------------5--3--5----|
|---------------------------------------------------------|

3:07
|---------------------------------|
|-2-------2---5-4-2-------2-------|
|---3-5-2---3-------3-5-2---3-----|
|-----------------------------5-4-|

3:28
|---------------------------------|
|-----------------------------5-4-|
|---3-5-2---3-------3-5-2---3-----|
|-2-------2---5-4-2-------2-------|

3:48                          x4
|-------------------------------|-----|
|o-----------------------------o|-----|
|o--------3-3333---------------o|-----|
|--2-2222--------4-4444-454545--|-2~~-|
Tabbed by Dave Vucko

===============================================================================

The Legacy

Intro
F#|-----------------------------------------------------------------|
C#|-----------------------------------------------------------------|
G#|-----------------------------------------------------------------|
C#|-2-0-2-0-2-5-2-0-0-0-5-7-8-7-5-7-2-0-2-0-2-5-2-0-2-5-2-0/8-8-8-8-|
    1 + 2 + 3 + 4 + 1 + 2 + 3 + 4 + 1 + 2 + 3 + 4 + 1 + 2 + 3 + 4 +

F#|-----------------------------------------------------------------|
C#|-----------------------------------------------------------------|
G#|-----------------------------------------------------------------|
C#|-2-0-2-0-2-5-2-0-0-0-5-7-8-7-5-7-2-0-2-0-2-5-2-0-000-000-000-8-\-|
    1 + 2 + 3 + 4 + 1 + 2 + 3 + 4 + 1 + 2 + 3 + 4 + 1 + 2 + 3 + 4 +

F#|-----------------------------------------------------------------|
C#|-----------------------------------------------------------------|
G#|-----------------------------------------------------------------|
C#|-2-0-2-0-2-5-2-0-0---5---8-7-5-7-2-0-2-0-2-5-2-0-2-5-2-0/8-8-8-8-|
    1 + 2 + 3 + 4 + 1 + 2 + 3 + 4 + 1 + 2 + 3 + 4 + 1 + 2 + 3 + 4 +

F#|-----------------------------------------------------------------|
C#|-----------------------------------------------------------------|
G#|-----------------------------------------------------------------|
C#|-2-0-2-0-2-5-2-0-0---5---8-7-5-7-2-0-2-0-2-5-2-0-0---0---0---8-\-|
    1 + 2 + 3 + 4 + 1 + 2 + 3 + 4 + 1 + 2 + 3 + 4 + 1 + 2 + 3 + 4 +

0:22
F#|-------------------------------------------------------------------|------------------------|
C#|o-----------------------------------------------------------------o|------------------------|
G#|o-----------------------------------------------------------------o|-----------------3-5-\--|
C#|--2-0-2-0-2-5-2-0-0---5---8-7-5-7-2-0-2-0-2-5-2-0-2-5-2-0/8-8-8-8--|-8-8-7-7-7-7-7-7--------|
     1 + 2 + 3 + 4 + 1 + 2 + 3 + 4 + 1 + 2 + 3 + 4 + 1 + 2 + 3 + 4 +    1 + 2 + 3 + 4 + 1 + 2 +

Verse 0:34
F#|------------------------------------------------------------------|
C#|o---------------------------------------------------------232---2-|
G#|o-575-------------575-----353-0-3-575-------------575---------3---|
C#|------0-0-0-0-0-0-----0-0-------------0-0-0-0-0-0-----0-0---------|
     1 + 2 + 3 + 4 + 1 + 2 + 3 + 4 + 1 + 2 + 3 + 4 + 1 + 2 + 3 + 4 +

F#|------------------------------------------------------------------|
C#|-----------------------------------------------------------------o|
G#|-575-------------575-----353-0-3-575-----------------------------o|
C#|-----0-0-0-0-0-0-----0-0-------------0-0-0-0-0-0-8-8-7-7-5-5-3-3--|
    1 + 2 + 3 + 4 + 1 + 2 + 3 + 4 + 1 + 2 + 3 + 4 + 1 + 2 + 3 + 4 +

F#|--------------------------------------------------------|
C#|--------------------------------------------------------|
G#|--------------------------------------------------------|
C#|-8-8-8-8-8-8-8-8-8-8-8-8-10-10-10-10-10-10-10-\---------|
    1 + 2 + 3 + 1 + 2 + 3 + 1  +  2  +  3  +  1  + 2 + 3 + 

Chorus 0:58
F#|---------------------------------------------------------------------------------------------------|
C#|o-------------------------------------------------------------------------------------------------o|
G#|o-------------------------------------------------------------------------1-1-1-1-1-1-3-3-3-3-3-3-o|
C#|--0-0---0---0-0---0---0---3-3---3---3-3---3---3---5-5---5---5-5---5---5----------------------------|
     1 + 2 + 3 + 1 + 2 + 3 + 1 + 2 + 3 + 1 + 2 + 3 + 1 + 2 + 3 + 1 + 2 + 3 + 1 + 2 + 3 + 1 + 2 + 3 + 

Interlude
F#|-----------------------------------------------------------------|
C#|-----------------------------------------------------------------|
G#|-----------------------------------------------------1-0-1-3-1-0-|
C#|-1-0-1-0-------------------------1-0-1-0-------------------------|
    1 + 2 + 3 + 4 + 1 + 2 + 3 + 4 + 1 + 2 + 3 + 4 + 1 + 2 + 3 + 4 +

F#|-----------------------------------------------------------------|
C#|-----------------------------------------------------------------|
G#|-------------1-3-1---------------------------1-3-1-0-1-0-1-3-1-0-|
C#|-1-0-1-0-----------0-0-0-5-----5-1-0-1-0-------------------------|
    1 + 2 + 3 + 4 + 1 + 2 + 3 + 4 + 1 + 2 + 3 + 4 + 1 + 2 + 3 + 4 +

Verse 1:23
F#|------------------------------------------------------------------|
C#|o---------------------------------------------------------232---2-|
G#|o-575-------------575-----353-0-3-575-------------575---------3---|
C#|------0-0-0-0-0-0-----0-0-------------0-0-0-0-0-0-----0-0---------|
     1 + 2 + 3 + 4 + 1 + 2 + 3 + 4 + 1 + 2 + 3 + 4 + 1 + 2 + 3 + 4 +

F#|------------------------------------------------------------------|
C#|-----------------------------------------------------------------o|
G#|-575-------------575-----353-0-3-575-----------------------------o|
C#|-----0-0-0-0-0-0-----0-0-------------0-0-0-0-0-0-8-8-7-7-5-5-3-3--|
    1 + 2 + 3 + 4 + 1 + 2 + 3 + 4 + 1 + 2 + 3 + 4 + 1 + 2 + 3 + 4 +

F#|-----------------------------------------------------------|
C#|------------------------------------------------------------|
G#|------------------------------------------------------------|
C#|-8-8-8-8-8-8-8-8-8-8-8-8-10-10-10-10-10-10-10-10-10-10-10---|
    1 + 2 + 3 + 1 + 2 + 3 + 1  +  2  +  3  +  1  +  2  +  3  + 

Chorus 1:47
F#|---------------------------------------------------------------------------------------------------|
C#|o-------------------------------------------------------------------------------------------------o|
G#|o-------------------------------------------------------------------------1-1-1-1-1-1-3-3-3-3-3-3-o|
C#|--0-0---0---0-0---0---0---3-3---3---3-3---3---3---5-5---5---5-5---5---5----------------------------|
     1 + 2 + 3 + 1 + 2 + 3 + 1 + 2 + 3 + 1 + 2 + 3 + 1 + 2 + 3 + 1 + 2 + 3 + 1 + 2 + 3 + 1 + 2 + 3 + 

2:01
F#|-------------------------------------------------------------------------------------------------|
C#|-------------------------------------------------------------------------------------------------|
G#|-------------------------------------------------------------------------1-1-1-1-1-1-3-3-3-3-3-3-|
C#|-0-0---0---0-0---0---0---3---3-3---3-3---3---3---5---5-5---5-5---5---5---------------------------|
    1 + 2 + 3 + 1 + 2 + 3 + 1 + 2 + 3 + 1 + 2 + 3 + 1 + 2 + 3 + 1 + 2 + 3 + 1 + 2 + 3 + 1 + 2 + 3 + 

F#|-------------------------------------------------------------------------------------------------|
C#|-------------------------------------------------------------------------------------------------|
G#|-------------------------------------------------------------------------1-1-1-1-1-1-3-3-3-3-3-3-|
C#|-0-0---0---0-0---0---0---3---3-3---3-3---3---3---5-5---5---5-5-5-5---5---------------------------|
    1 + 2 + 3 + 1 + 2 + 3 + 1 + 2 + 3 + 1 + 2 + 3 + 1 + 2 + 3 + 1 + 2 + 3 + 1 + 2 + 3 + 1 + 2 + 3 + 

Interlude 2:17
F#|-----------------------------------------------------------------|
C#|-----------------------------------------------------------------|
G#|-----------------------------------------------------------------|
C#|-0---------------------------------------------------------------|
    1 + 2 + 3 + 4 + 1 + 2 + 3 + 4 + 1 + 2 + 3 + 4 + 1 + 2 + 3 + 4 +

F#|-----------------------------------------------------------------|
C#|-----------------------------------------------------------------|
G#|-----------------------------------------------------------------|
C#|---------------------------------r-------------------------------|
    1 + 2 + 3 + 4 + 1 + 2 + 3 + 4 + 1 + 2 + 3 + 4 + 1 + 2 + 3 + 4 +

Breakdown 2:27
F#|-----------------------------------------------------------------|
C#|-----------------------------------------------------------------|
G#|-----------------------------------------------------------------|
C#|-0-5-7-0-5-3-0-5-7-0-5-3-0-3-5-3-0-5-7-0-5-3-0-5-7-0-5-3-0-5-7-5-|
    1 + 2 + 3 + 4 + 1 + 2 + 3 + 4 + 1 + 2 + 3 + 4 + 1 + 2 + 3 + 4 +

F#|--------------------------------------------------------------------|
C#|--------------------------------------------------------------------|
G#|--------------------------------------5-8---5-3---5-8---5-3---5-8-5-|
C#|-0-7-10-0-7-5-0-7-10-0-7-5-0-7-10-7---------------------------------|
    1 + 2  + 3 + 4 + 1  + 2 + 3 + 4  + 1 + 2 + 3 + 4 + 1 + 2 + 3 + 4 +

2:38 Run! Never Look Back! x4
F#|-------------------------------------------------------------------|-----------------|
C#|o-----------------------------------------------------------------o|-----------------|
G#|o-----------------------------------------------------------------o|-----------------|
C#|--000000000---00000---------------000000000---00000--0--0-12--\----|-Rest-Two-Bars---|
     1 + 2 + 3 + 4 + 1 + 2 + 3 + 4 + 1 + 2 + 3 + 4 + Triplet 3 + 4 +    1 2 3 4 1 2 3 4

Solo 3:01
F#|-----------------------------------------------------------------|
C#|-----------------------------------------------------------------|
G#|-----------------------------------------------------------------|
C#|-2-0-2-0-2-5-2-0-0---5---8-7-5-7-2-0-2-0-2-5-2-0-2-5-2-0/8-8-8-8-|
    1 + 2 + 3 + 4 + 1 + 2 + 3 + 4 + 1 + 2 + 3 + 4 + 1 + 2 + 3 + 4 +

F#|-----------------------------------------------------------------|
C#|-----------------------------------------------------------------|
G#|-----------------------------------------------------------------|
C#|-2-0-2-0-2-5-2-0-0---5---8-7-5-7-2-0-2-0-2-5-2-0-0---0---0---8-\-|
    1 + 2 + 3 + 4 + 1 + 2 + 3 + 4 + 1 + 2 + 3 + 4 + 1 + 2 + 3 + 4 +

F#|-------------------------------------------------------------------|
C#|o-----------------------------------------------------------------o|
G#|o-----------------------------------------------------------------o|
C#|--2-0-2-0-2-5-2-0-0---5---8-7-5-7-2-0-2-0-2-5-2-0-2-5-2-0/8-8-8-8--|
     1 + 2 + 3 + 4 + 1 + 2 + 3 + 4 + 1 + 2 + 3 + 4 + 1 + 2 + 3 + 4 +

F#|---------------------------------|
C#|---------------------------------|
G#|---------------------------------|
C#|-8-8-8-7-7-7-5-5-5-8-8-8-7-7-5-5-|
    Tripl Tripl Tripl Tripl 2 + 3 +

Bridge
F#|-----------------------------------------------------------------|
C#|-----------------------------------------------------------------|
G#|-----------------------------------------------------------------|
C#|-0-------------------------------3-------------------------------|
    1 + 2 + 3 + 4 + 1 + 2 + 3 + 4 + 1 + 2 + 3 + 4 + 1 + 2 + 3 + 4 +

F#|-----------------------------------------------------------------|
C#|-----------------------------------------------------------------|
G#|---------------------------------1---------------3---------------|
C#|-5---------------------------------------------------------------|
    1 + 2 + 3 + 4 + 1 + 2 + 3 + 4 + 1 + 2 + 3 + 4 + 1 + 2 + 3 + 4 +

F#|-----------------------------------------------------------------|
C#|-----------------------------------------------------------------|
G#|-----------------------------------------------------------------|
C#|-0---0---0---0---0---0---0---0---3---3---3---3---3---3---3---3---|
    1 + 2 + 3 + 4 + 1 + 2 + 3 + 4 + 1 + 2 + 3 + 4 + 1 + 2 + 3 + 4 +

F#|---------------------------------------------------------------------------------|
C#|---------------------------------------------------------------------------------|
G#|---------------------------------1-1-1-1-1-1-1-1-3-3-3-3-3-3-3-3-----------------|
C#|-5---5---5---5---5---5---5---5-----------------------------------0---------------|
    1 + 2 + 3 + 4 + 1 + 2 + 3 + 4 + 1 + 2 + 3 + 4 + 1 + 2 + 3 + 4 + 1 2 3 4 1 2 3 4

3:46
F#|-----------------------------------------------------------------|
C#|-----------------------------------------------------------------|
G#|-----------------------------------------------------------------|
C#|-0---00000---00000---0---0---0---5---55555---55558---88888---8---|
    1 + 2 + 3 + 4 + 1 + 2 + 3 + 4 + 1 + 2 + 3 + 4 + 1 + 2 + 3 + 4 +

F#|-----------------------------------------------------------------|
C#|-----------------------------------------------------------------|
G#|-----------------------------------------------------------------|
C#|-0---00000---00000---0---0---0---5---55555---55558---7---5---3---|
    1 + 2 + 3 + 4 + 1 + 2 + 3 + 4 + 1 + 2 + 3 + 4 + 1 + 2 + 3 + 4 +

Chorus 3:56
F#|---------------------------------------------------------------------------------------------------|
C#|o-------------------------------------------------------------------------------------------------o|
G#|o-------------------------------------------------------------------------1-1-1-1-1-1-3-3-3-3-3-3-o|
C#|--0-0---0---0-0---0---0---3-3---3---3-3---3---3---5-5---5---5-5---5---5----------------------------|
     1 + 2 + 3 + 1 + 2 + 3 + 1 + 2 + 3 + 1 + 2 + 3 + 1 + 2 + 3 + 1 + 2 + 3 + 1 + 2 + 3 + 1 + 2 + 3 + 

F#|-------------------------------------------------------------------------------------------------|
C#|-------------------------------------------------------------------------------------------------|
G#|-------------------------------------------------------------------------1-1-1-1-1-1-3-3-3-3-3-3-|
C#|-0-0---0---0-0---0---0---3---3-3---3-3---3---3---5---5-5---5-5---5---5---------------------------|
    1 + 2 + 3 + 1 + 2 + 3 + 1 + 2 + 3 + 1 + 2 + 3 + 1 + 2 + 3 + 1 + 2 + 3 + 1 + 2 + 3 + 1 + 2 + 3 + 

F#|-------------------------------------------------------------------------------------------------|
C#|-------------------------------------------------------------------------------------------------|
G#|-------------------------------------------------------------------------1-1-1-1-1-1-3-3-3-3-3-3-|
C#|-0-0---0---0-0---0---0---3---3-3---3-3---3---3---5-5---5---5-5-5-5---5---------------------------|
    1 + 2 + 3 + 1 + 2 + 3 + 1 + 2 + 3 + 1 + 2 + 3 + 1 + 2 + 3 + 1 + 2 + 3 + 1 + 2 + 3 + 1 + 2 + 3 + 

Outro 4:27
F#|-----------------------------------------------------------------|
C#|-----------------------------------------------------------------|
G#|-------------1-3-1---------------------------1-3-1-0-1-0-1-3-1-0-|
C#|-1-0-1-0-----------0-0-0-5-----5-1-0-1-0-------------------------|
    1 + 2 + 3 + 4 + 1 + 2 + 3 + 4 + 1 + 2 + 3 + 4 + 1 + 2 + 3 + 4 +

F#|-----------------------------------------------------------------|
C#|-----------------------------------------------------------------|
G#|-------------1-3-1---------------------------1-3-1-0-1-0-1-------|
C#|-1-0-1-0-----------0-0-0-5-----5-1-0-1-0-------------------------|
    1 + 2 + 3 + 4 + 1 + 2 + 3 + 4 + 1 + 2 + 3 + 4 + 1 + 2 + 3 + 4 +
Tabbed by Dave Vucko

==============================================================================

Die For You

F#|-----------------------------------------------------------------|
C#|-----------------------------------------------------------------|
G#|-----------------------------------------------------------------|
C#|-7-----------2---3-----------3---4-----------4---5-----------2---|
    1 + 2 + 3 + 4 + 1 + 2 + 3 + 4 + 1 + 2 + 3 + 4 + 1 + 2 + 3 + 4 +

F#|-------------------------------------------------------------------|
C#|o-----------------------------------------------------------------o|
G#|o-----------------------------------------------------------------o|
C#|--7-------7---2---3---3-3-3-3-3---4---4-4-4-4-4---5---5-5-5-5-2----|
     1 + 2 + 3 + 4 + 1 + 2 + 3 + 4 + 1 + 2 + 3 + 4 + 1 + 2 + 3 + 4 +

0:16 Verse
F#|-----------------------------------------------------------------|
C#|-----------------------------------------------------------------|
G#|-----------------------------------------------------------------|
C#|-7-7-7-7-----7-7-7-7-----7-7-7---3-3-3-3-----3-3-0-0-0-0-0-0-0-0-|
    1 + 2 + 3 + 4 + 1 + 2 + 3 + 4 + 1 + 2 + 3 + 4 + 1 + 2 + 3 + 4 +

F#|-----------------------------------------------------------------|
C#|-----------------------------------------------------------------|
G#|-----------------------------------------------------------------|
C#|-7-7-7-7-----7-7-7-7-----7-7-7---3-3-3-3-3-3-3-3-5-5-5-5-5-2-----|
    1 + 2 + 3 + 4 + 1 + 2 + 3 + 4 + 1 + 2 + 3 + 4 + 1 + 2 + 3 + 4 +

F#|-----------------------------------------------------------------|
C#|-----------------------------------------------------------------|
G#|-----------------------------------------------------------------|
C#|-7-7-7-7-----7-7-7-7-----7-7-7---3-3-3-3-----3-3-0-0-0-0-0-0-0-0-|
    1 + 2 + 3 + 4 + 1 + 2 + 3 + 4 + 1 + 2 + 3 + 4 + 1 + 2 + 3 + 4 +

F#|-----------------------------------------------------------------|
C#|-----------------------------------------------------------------|
G#|-----------------------------------------------------------------|
C#|-7-7-7-7-----7-7-7-7-----7-7-7---3-3-3-3-----3-3-5-5-5-5-5-5-5-5-|
    1 + 2 + 3 + 4 + 1 + 2 + 3 + 4 + 1 + 2 + 3 + 4 + 1 + 2 + 3 + 4 +

0:37 Pre Chorus
F#|-----------------------------------------------------------------|
C#|-----------------------------------------------------------------|
G#|-----------------------------------------------------------------|
C#|-3-3-3-3-3-3-3-3-3-3-3-3-3-3-3-3-0-0-0-0-0-0-0-0-0-0-0-0-0-0-0-0-|
    1 + 2 + 3 + 4 + 1 + 2 + 3 + 4 + 1 + 2 + 3 + 4 + 1 + 2 + 3 + 4 +

F#|-----------------------------------------------------------------|
C#|-----------------------------------------------------------------|
G#|-----------------------------------------------------------------|
C#|-3-3-3-3-3-3-3-3-3-3-3-3-3-3-3-3-0-0-0-0-0-0-0-0-0---------------|
    1 + 2 + 3 + 4 + 1 + 2 + 3 + 4 + 1 + 2 + 3 + 4 + 1 + 2 + 3 + 4 +

0:48 Chorus
F#|-----------------------------------------------------------------|
C#|-----------------------------------------------------------------|
G#|-0-0-0-0-0-0-0-0-0-3-3-3-3-3-3-3-3-------------------------------|
C#|-----------------------------------3-3---3-3-3-3-3-5-5---5-5-5-5-|
    1 + 2 + 3 + 4 + 1 + 2 + 3 + 4 + 1 + 2 + 3 + 4 + 1 + 2 + 3 + 4 +

F#|-----------------------------------------------------------------|
C#|-----------------------------------------------------------------|
G#|-0-0-0-0-0-0-0-0-0-3-3-3-3-3-3-3---------------------------------|
C#|---------------------------------3-3-3-3-3-3-3-3-0-0-0-0-0-0-0-0-|
    1 + 2 + 3 + 4 + 1 + 2 + 3 + 4 + 1 + 2 + 3 + 4 + 1 + 2 + 3 + 4 +

F#|-----------------------------------------------------------------|
C#|-----------------------------------------------------------------|
G#|-0-0-0-0-0---0---0-3-3-3-3-3-3-3-3-------------------------------|
C#|-----------------------------------3-3-3-3---3---3-5-5---5-5-5-5-|
    1 + 2 + 3 + 4 + 1 + 2 + 3 + 4 + 1 + 2 + 3 + 4 + 1 + 2 + 3 + 4 +

F#|-----------------------------------------------------------------|
C#|-----------------------------------------------------------------|
G#|-----------------------------------------------------------------|
C#|-3-3-3-3-3-3-3-3-3-3-3-3-3-3-3-3-3-0-0-0-0-0-0-0-0-0-0-0-0-0-0-0-|
    1 + 2 + 3 + 4 + 1 + 2 + 3 + 4 + 1 + 2 + 3 + 4 + 1 + 2 + 3 + 4 +

Interlude
F#|-----------------------------------------------------------------|
C#|-----------------------------------------------------------------|
G#|-----------------------------------------------------------------|
C#|-7-----------2---3-----------3---4-----------4---5-------5-2-2-2-|
    1 + 2 + 3 + 4 + 1 + 2 + 3 + 4 + 1 + 2 + 3 + 4 + 1 + 2 + 3 + 4 +

1:13 Verse
F#|-----------------------------------------------------------------|
C#|-----------------------------------------------------------------|
G#|-----------------------------------------------------------------|
C#|-7-7-7-7-----7-7-7-7-----7-7-7---3-3-3-3-----3-3-0-0-0-0-0-0-0-0-|
    1 + 2 + 3 + 4 + 1 + 2 + 3 + 4 + 1 + 2 + 3 + 4 + 1 + 2 + 3 + 4 +

F#|-----------------------------------------------------------------|
C#|-----------------------------------------------------------------|
G#|-----------------------------------------------------------------|
C#|-7-7-7-7-----7-7-7-7-----7-7-7---3-3-3-3-3-3-3-3-5-5-5-5-5-2-----|
    1 + 2 + 3 + 4 + 1 + 2 + 3 + 4 + 1 + 2 + 3 + 4 + 1 + 2 + 3 + 4 +

F#|-----------------------------------------------------------------|
C#|-----------------------------------------------------------------|
G#|-----------------------------------------------------------------|
C#|-7-7-7-7-----7-7-7-7-----7-7-7---3-3-3-3-----3-3-0-0-0-0-0-0-0-0-|
    1 + 2 + 3 + 4 + 1 + 2 + 3 + 4 + 1 + 2 + 3 + 4 + 1 + 2 + 3 + 4 +

F#|-----------------------------------------------------------------|
C#|-----------------------------------------------------------------|
G#|-----------------------------------------------------------------|
C#|-7-7-7-7-----7-7-7-7-----7-7-7---3-3-3-3-3-3-3-3-5-5-5-5-5-5-5-5-|
    1 + 2 + 3 + 4 + 1 + 2 + 3 + 4 + 1 + 2 + 3 + 4 + 1 + 2 + 3 + 4 +

1:35 Pre Chorus
F#|-----------------------------------------------------------------|
C#|-----------------------------------------------------------------|
G#|-----------------------------------------------------------------|
C#|-3-3-3-3-3-3-3-3-3-3-3-3-3-3-3-3-0-0-0-0-0-0-0-0-0-0-0-0-0-0-0-0-|
    1 + 2 + 3 + 4 + 1 + 2 + 3 + 4 + 1 + 2 + 3 + 4 + 1 + 2 + 3 + 4 +

F#|-----------------------------------------------------------------|
C#|-----------------------------------------------------------------|
G#|-----------------------------------------------------------------|
C#|-3-3-3-3-3-3-3-3-3-3-3-3-3-3-3-3-0-0-0-0-0-0-0-0-0---------------|
    1 + 2 + 3 + 4 + 1 + 2 + 3 + 4 + 1 + 2 + 3 + 4 + 1 + 2 + 3 + 4 +

1:45 Chorus
F#|-----------------------------------------------------------------|
C#|-----------------------------------------------------------------|
G#|-0-0-0-0-0---0---0-3-3---3-3-3-3-3-------------------------------|
C#|-----------------------------------3-3-3-3---3---3-5-5---5-5-5-5-|
    1 + 2 + 3 + 4 + 1 + 2 + 3 + 4 + 1 + 2 + 3 + 4 + 1 + 2 + 3 + 4 +

F#|-----------------------------------------------------------------|
C#|-----------------------------------------------------------------|
G#|-0-0-0-0-0-0-0-0-0-3-3-3-3-3-3-3---------------------------------|
C#|---------------------------------3-3-3-3-3-3-3-3-0-0-0-0-0-0-0-0-|
    1 + 2 + 3 + 4 + 1 + 2 + 3 + 4 + 1 + 2 + 3 + 4 + 1 + 2 + 3 + 4 +

F#|-----------------------------------------------------------------|
C#|-----------------------------------------------------------------|
G#|-0-0-0-0-0---0---0-3-3---3-3-3-3-3-------------------------------|
C#|-----------------------------------3-3-3-3---3---3-5-5---5-5-5-5-|
    1 + 2 + 3 + 4 + 1 + 2 + 3 + 4 + 1 + 2 + 3 + 4 + 1 + 2 + 3 + 4 +

F#|-----------------------------------------------------------------|
C#|-----------------------------------------------------------------|
G#|-----------------------------------------------------------------|
C#|-3-3-3-3-3-3-3-3-3-3-3-3-3-3-3-3-3-0-0-0-0-0-0-0-0-0-0-0-0-0-0-0-|
    1 + 2 + 3 + 4 + 1 + 2 + 3 + 4 + 1 + 2 + 3 + 4 + 1 + 2 + 3 + 4 +

2:07
F#|-----------------------------------------------------------------|
C#|-------------------------2-2-2-2---------------------------------|
G#|-0-0-0-0-2-2-2-2-3-3-3-3-----------------------------------------|
C#|---------------------------------3-r-3-3-3-3-3-3-3-r-3-3-3-3-3-3-|
    1 + 2 + 3 + 4 + 1 + 2 + 3 + 4 + 1 + 2 + 3 + 4 + 1 + 2 + 3 + 4 +

F#|-----------------------------------------------------------------|
C#|-------------------------2-2-2-2---------------------------------|
G#|-0-0-0-0-2-2-2-2-3-3-3-3-----------------------------------------|
C#|---------------------------------3-r-3-3-3-3-3-3-3-r-3-3-3-3-3-3-|
    1 + 2 + 3 + 4 + 1 + 2 + 3 + 4 + 1 + 2 + 3 + 4 + 1 + 2 + 3 + 4 +

F#|---------------------------------|
C#|---------------------------------|
G#|---------------------------------|
C#|-0-r-0-0-0-0-0-0-0-r-0-0-0-0-0-0-|
    1 + 2 + 3 + 4 + 1 + 2 + 3 + 4 +

Solo 2:21
F#|-----------------------------------------------------------------|
C#|-----------------------------------------------------------------|
G#|-----------------------------------------------------------------|
C#|-7-----7-7---2---3-----3-3-3-3-3-4---4-4-4---4---5-------5---2---|
    1 + 2 + 3 + 4 + 1 + 2 + 3 + 4 + 1 + 2 + 3 + 4 + 1 + 2 + 3 + 4 +

F#|-----------------------------------------------------------------|
C#|-----------------------------------------------------------------|
G#|-----------------------------------------------------------------|
C#|-7-----7-7---2---3-----3-3---3---4-----4-4---4---5-------5---2---|
    1 + 2 + 3 + 4 + 1 + 2 + 3 + 4 + 1 + 2 + 3 + 4 + 1 + 2 + 3 + 4 +

F#|-----------------------------------------------------------------|
C#|-----------------------------------------------------------------|
G#|-----------------------------------------------------------------|
C#|-7-----7-7---2---3-----3-3---3---4-----4-4---4---5-5-----6-6-----|
    1 + 2 + 3 + 4 + 1 + 2 + 3 + 4 + 1 + 2 + 3 + 4 + 1 + 2 + 3 + 4 +

2:36
F#|-----------------------------------------------------------------|
C#|-----------------------------------------------------------------|
G#|-0-0-0-0-0---0---0-3-3-3-3-3-3-3-3-------------------------------|
C#|-----------------------------------3-3-3-3-3-3-3-3-3-3-3-3-3-3-3-|
    1 + 2 + 3 + 4 + 1 + 2 + 3 + 4 + 1 + 2 + 3 + 4 + 1 + 2 + 3 + 4 +

F#|-------------------------------------------------------------------|
C#|o-----------------------------------------------------------------o|
G#|o-0-0-0-0-0-0-0-0-0-3-3-3-3-3-3-3-3-------------------------------o|
C#|------------------------------------3-3-3-3-3-3-3-3-3-3-3-3-3-3-3--|
     1 + 2 + 3 + 4 + 1 + 2 + 3 + 4 + 1 + 2 + 3 + 4 + 1 + 2 + 3 + 4 +

F#|-----------------------------------------------------------------|
C#|-----------------------------------------------------------------|
G#|-0-0-0-0-0-0-0-0-0-3-3-3-3-3-3-3---------------------------------|
C#|-----------------------------------------------------------------|
    1 + 2 + 3 + 4 + 1 + 2 + 3 + 4 + 1 + 2 + 3 + 4 + 1 + 2 + 3 + 4 +

2:58 Chorus
F#|-----------------------------------------------------------------|
C#|-----------------------------------------------------------------|
G#|-0-0-0-0-0---0---0-3-3-3-3-3-3-3-3-------------------------------|
C#|-----------------------------------3-3-3-3-3-3-3-3-5-5-5-5-5-5-5-|
    1 + 2 + 3 + 4 + 1 + 2 + 3 + 4 + 1 + 2 + 3 + 4 + 1 + 2 + 3 + 4 +

F#|-----------------------------------------------------------------|
C#|-----------------------------------------------------------------|
G#|-0-0-0-0-0---0---0-3-3-3-3-3-3-3---------------------------------|
C#|---------------------------------3-3-3-3-3-3-3-3-0-0-0-0-0-0-0-0-|
    1 + 2 + 3 + 4 + 1 + 2 + 3 + 4 + 1 + 2 + 3 + 4 + 1 + 2 + 3 + 4 +

F#|-----------------------------------------------------------------|
C#|-----------------------------------------------------------------|
G#|-0-0-0-0-0---0---0-3-3-3-3-3-3-3-3-------------------------------|
C#|-----------------------------------3-3-3-3-3-3-3-3-5-5-5-5-5-5-5-|
    1 + 2 + 3 + 4 + 1 + 2 + 3 + 4 + 1 + 2 + 3 + 4 + 1 + 2 + 3 + 4 +

F#|-----------------------------------------------------------------|
C#|-----------------------------------------------------------------|
G#|-----------------------------------------------------------------|
C#|-3-3-3-3-3-3-3-3-3-3-3-3-3-3-3-3-3-0-0-0-0-0-0-0-0-0-0-0-0-0-0-0-|
    1 + 2 + 3 + 4 + 1 + 2 + 3 + 4 + 1 + 2 + 3 + 4 + 1 + 2 + 3 + 4 +

F#|-----------------------------------------------------------------|
C#|-----------------------------------------------------------------|
G#|-0-0-0-0-0---0---0-3-3-3-3-3-3-3-3-------------------------------|
C#|-----------------------------------3-3-3-3-3-3-3-3-5-5-5-5-5-5-5-|
    1 + 2 + 3 + 4 + 1 + 2 + 3 + 4 + 1 + 2 + 3 + 4 + 1 + 2 + 3 + 4 +

F#|-----------------------------------------------------------------|
C#|-----------------------------------------------------------------|
G#|-0-0-0-0-0-0-0-0-0-3-3-3-3-3-3-3---------------------------------|
C#|---------------------------------3-3-3-3-3-3-3-3-0-0-0-0-0-0-0-0-|
    1 + 2 + 3 + 4 + 1 + 2 + 3 + 4 + 1 + 2 + 3 + 4 + 1 + 2 + 3 + 4 +

F#|-----------------------------------------------------------------|
C#|-----------------------------------------------------------------|
G#|-0-0-0-0-0---0---0-3-3-3-3-3-3-3-3-------------------------------|
C#|-----------------------------------3-3-3-3-3-3-3-3-5-5-5-5-5-5-5-|
    1 + 2 + 3 + 4 + 1 + 2 + 3 + 4 + 1 + 2 + 3 + 4 + 1 + 2 + 3 + 4 +

F#|-----------------------------------------------------------------|
C#|-----------------------------------------------------------------|
G#|-----------------------------------------------------------------|
C#|-3-3-3-3-3-3-3-3-3-3-3-3-3-3-3-3-3-0-0-0-0-0-0-0-0-0-0-0-0-0-0-0-|
    1 + 2 + 3 + 4 + 1 + 2 + 3 + 4 + 1 + 2 + 3 + 4 + 1 + 2 + 3 + 4 +
Tabbed by Dave Vucko

===========================================================================

Ritual

Intro 0:18
|--------------------------------------------------------------------|
|o------------------------------------------------------------------o|
|o-3333333333333333-------------------------------------------------o|
|------------------222222222222333355555555555555550000000000000000--|

Verse 0:36
|------------------|
|----5-------5---5-|
|-3~-----23~--5~---|
|-----5~-----------|

0:45
|------------------------------------------------------------------|
|---------------------------------------------5555-----------------|
|-3333333333332222------------2222333333333333----5555555555555555-|
|-----------------555555555555-------------------------------------|

Chorus 0:54
|--------------------------------------------------------------------|
|o------------------------------------------------------------------o|
|o-3333333333332222-------------------------------------------------o|
|------------------222222222222333355555555555555550000000000000000--|

Verse 1:12
|--------------------------------------------------------------------|
|o---------------------------------------------5555------------5555-o|
|o-3333333333332222------------2222333333333333----555555555555-----o|
|------------------555555555555--------------------------------------|

1:30
|---------------|
|---------------|
|-3~23235/98753-|
|---------------|

Chorus 1:34
|--------------------------------------------------------------------|
|o------------------------------------------------------------------o|
|o-3333333333332222-------------------------------------------------o|
|------------------222222222222333355555555555555550000000000000000--|

Bridge 1:51
|-------------------------|
|-------------------------|
|-3~----5~----3~----5~----|
|----5~----0-----5~----0~-|

Solo 2:10
|--------------------------------------------------------------------|
|o------------------------------------------------------------------o|
|o-3333333333333333----------------5555555555555555-----------------o|
|------------------5555555555555555----------------0000000000000000--|

Chorus x5 2:30
|--------------------------------------------------------------------|
|o------------------------------------------------------------------o|
|o-3333333333332222-------------------------------------------------o|
|------------------222222222222333355555555555555550000000000000000--|
Tabbed by Dave Vucko

=============================================================================

Youth And Whiskey

Intro
F|-----------------------------------------------------------------|
C|-------------------------------------------------0---0-1-3-1-0-1-|
G|---------------------------------------------------3-------------|
C|-00000-0---------000-000---------00000-0-------------------------|
   1 + 2 + 3 + 4 + 1 + 2 + 3 + 4 + 1 + 2 + 3 + 4 + 1 + 2 + 3 + 4 + 

F|--------------------------------------------------------------------|
C|--------------------------------------------------------------------|
G|--------------------------------------------------------------------|
C|-0-------------------------------10h12---8h10---7h8---5h7---8-7-5-7-|
   1 + 2 + 3 + 4 + 1 + 2 + 3 + 4 + 1  +  2 + 3  + 4 + 1 + 2 + 3 + 4 + 

F|-----------------------------------------------------------------|
C|-------------------------------------------------0---0-1-3-1-0-1-|
G|---------------------------------------------------3-------------|
C|-00000-0---------00000-0---------00000-0-------------------------|
   1 + 2 + 3 + 4 + 1 + 2 + 3 + 4 + 1 + 2 + 3 + 4 + 1 + 2 + 3 + 4 + 

F|--------------------------------------------------------------------|
C|--------------------------------------------------------------------|
G|--------------------------------------------------------------------|
C|-00000-0---------000-000-0-0-0-0-12-12-12-8-8-8-7-7-7-5-5-5-3-0-3-5-|
   1 + 2 + 3 + 4 + 1 + 2 + 3 + 4 + 1  +  2  + 3 + 4 + 1 + 2 + 3 + 4 + 

Verse 0:18
F|------------------------------------------------------------------|
C|o-----------------------------------------------------------------|
G|o-----------------------------------------------------------------|
C|--0---0---0---0--00---0---0---0--00---0---0---0---0---0---0---0--0|
    1 + 2 + 3 + 4 + 1 + 2 + 3 + 4 + 1 + 2 + 3 + 4 + 1 + 2 + 3 + 4 + 

F|------------------------------------------------------------------|
C|-----------------------------------------------------------------o|
G|-----------------------------------------------------------------o|
C|-0---0---0---0---0---0---0---0--00---0---0---0---0---0---0---0----|
   1 + 2 + 3 + 4 + 1 + 2 + 3 + 4 + 1 + 2 + 3 + 4 + 1 + 2 + 3 + 4 + 

F|-------------------------------------------|
C|-------------------------------------------|
G|-------------------------------------------|
C|-8-8-8-8-8-8-8-8-10-10-10-10-10------------|
   1 + 2 + 3 + 4 + 1  +  2  +  3  + 4 + 

0:40 Chorus
F|-----------------------------------------------------------------|
C|-----------------------------------------------------------------|
G|-----------------------------------------------------------------|
C|-0-0-0-0-0-0-0-0-0-0-0-0-0-0-0-2-3-3-3-3-3-3-3-3-3-3-3-3-3-3-3-7-|
   1 + 2 + 3 + 4 + 1 + 2 + 3 + 4 + 1 + 2 + 3 + 4 + 1 + 2 + 3 + 4 + 

F|-----------------------------------------------------------------|
C|-----------------------------------------------------------------|
G|-----------------------------------------------------------------|
C|-8-8-8-8-8-8-8-8-8-8-8-8-8-8-8-8-7-7-7-7-7-7-7-7-5-5-5-5-3---2---|
   1 + 2 + 3 + 4 + 1 + 2 + 3 + 4 + 1 + 2 + 3 + 4 + 1 + 2 + 3 + 4 + 

F|-----------------------------------------------------------------|
C|-----------------------------------------------------------------|
G|-----------------------------------------------------------------|
C|-0-0-0-0-0-0-0-0-0-0-0-0-0-0-0-2-3-3-3-3-3-3-3-3-3-3-3-3-3-3-3-7-|
   1 + 2 + 3 + 4 + 1 + 2 + 3 + 4 + 1 + 2 + 3 + 4 + 1 + 2 + 3 + 4 + 

F|---------------------------------------------------------------------|
C|---------------------------------------------------------------------|
G|---------------------------------------------------------------------|
C|-8-8-8-8-8-8-8-8-8-8-8-8-8-8-8-8-7-7-7-7-7-7-7-7-9-9-9-9-10-10-10-10-|
   1 + 2 + 3 + 4 + 1 + 2 + 3 + 4 + 1 + 2 + 3 + 4 + 1 + 2 + 3  +  4  + 

0:59 Interlude
F|-----------------------------------------------------------------|
C|-----------------------------------------------------------------|
G|---------------------3h5-----------------------------3h5---------|
C|-0---0-0-3---0-0-5---------3h5---0---0-0-3---0-0-5---------3-5-3-|
   1 + 2 + 3 + 4 + 1 + 2 + 3 + 4 + 1 + 2 + 3 + 4 + 1 + 2 + 3 + 4 + 

F|-----------------------------------------------------------------|
C|-----------------------------------------------------------------|
G|---------------------3h5-----------------------------------------|
C|-0---0-0-3---0-0-5---------3h5---0000------------000-000---------|
   1 + 2 + 3 + 4 + 1 + 2 + 3 + 4 + 1 + 2 + 3 + 4 + 1 + 2 + 3 + 4 + 

1:09 Verse
F|-----------------------------------------------------------------|
C|-----------------------------------------------------------------|
G|-----------------------------------------------------------------|
C|-00--00--00--0-0-0---00--00--0-0-0---00--00--0-0-0---00--00--0-0-|
   1 + 2 + 3 + 4 + 1 + 2 + 3 + 4 + 1 + 2 + 3 + 4 + 1 + 2 + 3 + 4 + 

F|---------------------------------------------------------------------|
C|---------------------------------------------------------------------|
G|---------------------------------------------------------------------|
C|-0---00--00--0-0-0---00--00--0-0-0-0-0-0-0-0-0-0-0-0-0-0-10-10-10-10-|
   1 + 2 + 3 + 4 + 1 + 2 + 3 + 4 + 1 + 2 + 3 + 4 + 1 + 2 + 3 + 4 + 

F|-----------------------------------------------------------------|
C|-----------------------------------------------------------------|
G|-----------------------------------------------------------------|
C|-0---00--00--0-0-0---00--00--0-0-0---00--00--0-0-0---00--00--0-0-|
   1 + 2 + 3 + 4 + 1 + 2 + 3 + 4 + 1 + 2 + 3 + 4 + 1 + 2 + 3 + 4 + 

F|-----------------------------------------------------------------|
C|-----------------------------------------------------------------|
G|-----------------------------------------------------------------|
C|-0---00--00--0-0-0---00--00--0-0-0-0-0-0-0-0-0-0-0-0-0-0-0-0-0-0-|
   1 + 2 + 3 + 4 + 1 + 2 + 3 + 4 + 1 + 2 + 3 + 4 + 1 + 2 + 3 + 4 + 

F|---------------------------------|
C|---------------------------------|
G|-----------------------------3---|
C|-r-------------------------------|
   1 + 2 + 3 + 4 + 1 + 2 + 3 + 4 + 

1:30 Chorus
F|-----------------------------------------------------------------|
C|-----------------------------------------------------------------|
G|-----------------------------------------------------------------|
C|-0-0-0-0-0-0-0-0-0-0-0-0-0-0-0-2-3-3-3-3-3-3-3-3-3-3-3-3-3-3-3-7-|
   1 + 2 + 3 + 4 + 1 + 2 + 3 + 4 + 1 + 2 + 3 + 4 + 1 + 2 + 3 + 4 + 

F|-----------------------------------------------------------------|
C|-----------------------------------------------------------------|
G|-----------------------------------------------------------------|
C|-8-8-8-8-8-8-8-8-8-8-8-8-8-8-8-8-7-7-7-7-7-7-7-7-5-5-5-5-3---2---|
   1 + 2 + 3 + 4 + 1 + 2 + 3 + 4 + 1 + 2 + 3 + 4 + 1 + 2 + 3 + 4 + 

F|-----------------------------------------------------------------|
C|-----------------------------------------------------------------|
G|-----------------------------------------------------------------|
C|-0-0-0-0-0-0-0-0-0-0-0-0-0-0-0-2-3-3-3-3-3-3-3-3-3-3-3-3-3-3-3-7-|
   1 + 2 + 3 + 4 + 1 + 2 + 3 + 4 + 1 + 2 + 3 + 4 + 1 + 2 + 3 + 4 + 

F|---------------------------------------------------------------------|
C|---------------------------------------------------------------------|
G|---------------------------------------------------------------------|
C|-8-8-8-8-8-8-8-8-8-8-8-8-8-8-8-8-7-7-7-7-7-7-7-7-9-9-9-9-10-10-10-10-|
   1 + 2 + 3 + 4 + 1 + 2 + 3 + 4 + 1 + 2 + 3 + 4 + 1 + 2 + 3  +  4  + 

1:50 Interlude
F|-----------------------------------------------------------------|
C|-------------------------------------------------0---0-1-3-1-0-1-|
G|---------------------------------------------------3-------------|
C|-00000-0---------000-000---------00000-0-------------------------|
   1 + 2 + 3 + 4 + 1 + 2 + 3 + 4 + 1 + 2 + 3 + 4 + 1 + 2 + 3 + 4 + 

F|--------------------------------------------------------------------|
C|--------------------------------------------------------------------|
G|--------------------------------------------------------------------|
C|-00000-0---------000-000-0-0-0-0-12-12-12-8-8-8-7-7-7-5-5-5-3-0-3-5-|
   1 + 2 + 3 + 4 + 1 + 2 + 3 + 4 + 1  +  2  + 3 + 4 + 1 + 2 + 3 + 4 + 

F|----------------------------------|
C|----------------------------------|
G|----------------------------------|
C|-0-0-0/8---8-7---0-0-0/10---8-7---|
   1 + 2 + 3 + 4 + 1 + 2 +  3 + 4 + 

2:02 Breakdown
F|-----------------------------------------------------------------|
C|-----------------------------------------------------------------|
G|-----------------------------------------------------------------|
C|-0-0-----0-0-----0000----0-0-----0-0-----0-0-----0-0-0-0-0-8-7---|
   1 + 2 + 3 + 4 + 1 + 2 + 3 + 4 + 1 + 2 + 3 + 4 + 1 + 2 + 3 + 4 + 

F|-----------------------------------------------------------------|
C|-----------------------------------------------------------------|
G|-------------------------------------5-5-7-7-8-8-7-7-5-5---------|
C|-0-0-----0-0-----0000----0-0-----8-8---------------------8-8-7-7-|
   1 + 2 + 3 + 4 + 1 + 2 + 3 + 4 + 1 + 2 + 3 + 4 + 1 + 2 + 3 + 4 + 

F|-----------------------------------------------------------------|
C|-----------------------------------------------------------------|
G|-----------------------------------------------------------------|
C|-0-0-0-0-0-0-0-0-0-0-0-0-0-0-0-0-0-0-0-0-0-0-0-0-0-0-0-0-0-0-0-0-|
   1 + 2 + 3 + 4 + 1 + 2 + 3 + 4 + 1 + 2 + 3 + 4 + 1 + 2 + 3 + 4 + 

F|-----------------------------------------------------------------|
C|-----------------------------------------------------------------|
G|-------------------------------------5-5-7-7-8-8-7-7-5-5---------|
C|-0-0-0-0-0-0-0-0-0-0-0-0-0-0-0-0-8-8---------------------8-8-7-7-|
   1 + 2 + 3 + 4 + 1 + 2 + 3 + 4 + 1 + 2 + 3 + 4 + 1 + 2 + 3 + 4 + 

2:21
F|--------------------------------------------------------------------|
C|o------------------------------------------------------------------o|
G|o------------------------------------------------------------------o|
C|--0-0-----0-0-----0000----0-0-----0-0-----0-0-----0-0-3---0-10-8----|
    1 + 2 + 3 + 4 + 1 + 2 + 3 + 4 + 1 + 2 + 3 + 4 + 1 + 2 + 3 +  4 + 

F|-----------------------------------------------------------------|
C|-----------------------------------------------------------------|
G|-----------------------------------------------------------------|
C|-0-------------------------------1-------------------------------|
   1 + 2 + 3 + 4 + 1 + 2 + 3 + 4 + 1 + 2 + 3 + 4 + 1 + 2 + 3 + 4 + 

Solo
2:35
F|-----------------------------------------------------------------|
C|-----------------------------------------------------------------|
G|-----------------------------------------------------------------|
C|-0-0-0-0-0-0-0-0-0-0-0-0-0-0-0-0-3-3-3-3-3-3-3-3-3-3-3-3-3-3-3-3-|
   1 + 2 + 3 + 4 + 1 + 2 + 3 + 4 + 1 + 2 + 3 + 4 + 1 + 2 + 3 + 4 + 

F|---------------------------------------------------------------------|
C|---------------------------------------------------------------------|
G|---------------------------------------------------------------------|
C|-8-8-8-8-8-8-8-8-8-8-8-8-8-8-8-8-5-5-5-5-5-5-5-5-9-9-9-9-10-10-10-10-|
   1 + 2 + 3 + 4 + 1 + 2 + 3 + 4 + 1 + 2 + 3 + 4 + 1 + 2 + 3  +  4  + 

F|-----------------------------------------------------------------|
C|-----------------------------------------------------------------|
G|-----------------------------------------------------------------|
C|-000-0-0-000-0-0-000-0-0-0-0-0-0-333-3-3-333-3-3-333-3-3-3-3-3-3-|
   1 + 2 + 3 + 4 + 1 + 2 + 3 + 4 + 1 + 2 + 3 + 4 + 1 + 2 + 3 + 4 + 

F|---------------------------------------------------------------------|
C|---------------------------------------------------------------------|
G|---------------------------------------------------------------------|
C|-8-8-8-8-8-8-8-8-8-8-8-8-8-8-8-8-5-5-5-5-5-5-5-5-9-9-9-9-10-10-10-10-|
   1 + 2 + 3 + 4 + 1 + 2 + 3 + 4 + 1 + 2 + 3 + 4 + 1 + 2 + 3  +  4  + 

Chorus 2:57
F|-----------------------------------------------------------------|
C|-----------------------------------------------------------------|
G|-----------------------------------------------------------------|
C|---------------------------------3-3-3-3-3-3-3-3-3-3-3-3-3-3-3-7-|
   1 + 2 + 3 + 4 + 1 + 2 + 3 + 4 + 1 + 2 + 3 + 4 + 1 + 2 + 3 + 4 + 

F|-----------------------------------------------------------------|
C|-----------------------------------------------------------------|
G|-----------------------------------------------------------------|
C|-8-8-8-8-8-8-8-8-8-8-8-8-8-8-8-8-7-7-7-7-7-7-7-7-5-5-5-5-3---2---|
   1 + 2 + 3 + 4 + 1 + 2 + 3 + 4 + 1 + 2 + 3 + 4 + 1 + 2 + 3 + 4 + 

F|-----------------------------------------------------------------|
C|-----------------------------------------------------------------|
G|-----------------------------------------------------------------|
C|-0-0-0-0-0-0-0-0-0-0-0-0-0-0-0-2-3-3-3-3-3-3-3-3-3-3-3-3-3-3-3-7-|
   1 + 2 + 3 + 4 + 1 + 2 + 3 + 4 + 1 + 2 + 3 + 4 + 1 + 2 + 3 + 4 + 

F|---------------------------------------------------------------------|
C|---------------------------------------------------------------------|
G|---------------------------------------------------------------------|
C|-8-8-8-8-8-8-8-8-8-8-8-8-8-8-8-8-7-7-7-7-7-7-7-7-9-9-9-9-10-10-10-10-|
   1 + 2 + 3 + 4 + 1 + 2 + 3 + 4 + 1 + 2 + 3 + 4 + 1 + 2 + 3  +  4  + 

Outro 3:14
F|-----------------------------------------------------------------|
C|-----------------------------------------------------------------|
G|-----------------------------------------------------------7-3---|
C|-0-0-----0-0-----0000----0-0-----0-0-----0-0-----0-0-0-0-0-------|
   1 + 2 + 3 + 4 + 1 + 2 + 3 + 4 + 1 + 2 + 3 + 4 + 1 + 2 + 3 + 4 + 

F|-----------------------------------------------------------------|
C|-------------------------------------------------8-7-5-----------|
G|-------------------------------------------------------8-6-5---6-|
C|-0-0-0-0-0-0-0-0-0-0-0-0-0-0-0-0-0-0-0-0-0-0-0-0-------------8---|
   1 + 2 + 3 + 4 + 1 + 2 + 3 + 4 + 1 + 2 + 3 + 4 + 1 + 2 + 3 + 4 + 

F|-----------------------------------------------------------------|
C|-----------------------------------------------------------------|
G|-------------------------0-1-0-----------------------------------|
C|-1-----------------1-1-1-------1-0-------------------------------|
   1 + 2 + 3 + 4 + 1 + 2 + 3 + 4 + 1 + 2 + 3 + 4 + 1 + 2 + 3 + 4 + 
Tabbed by Dave Vucko

==========================================================================

End of Regular Album

==========================================================================

Smoke And Mirrors

0:05
F#|-----------------------------------------------------------------|
C#|-----------------------------------------------------------------|
G#|-----------------------------------------------------------------|
C#|-2-0-2---0-2---0-2-0-2---0-2---0-2-0-2---0-2---0-2-5-5-5-5-7-7-7-|
    1 + 2 + 3 + 4 + 1 + 2 + 3 + 4 + 1 + 2 + 3 + 4 + 1 + 2 + 3 + 4 +

F#|-----------------------------------------------------------------|
C#|-----------------------------------------------------------------|
G#|-------------------------------------------------------0-5-0---0-|
C#|-2-0-2---0-2---0-2-0-2---0-2---0-2-0-2---0-2---0-2-5-5-------5---|
    1 + 2 + 3 + 4 + 1 + 2 + 3 + 4 + 1 + 2 + 3 + 4 + 1 + 2 + 3 + 4 +

F#|-----------------------------------------------------------------|
C#|-----------------------------------------------------------------|
G#|-----------------------------------------------------------------|
C#|-2-0-2---0-2---0-2-0-2---0-2---0-2-0-2---0-2---0-2-5-5-5-5-7-7-7-|
    1 + 2 + 3 + 4 + 1 + 2 + 3 + 4 + 1 + 2 + 3 + 4 + 1 + 2 + 3 + 4 +

F#|-----------------------------------------------------------------|
C#|-----------------------------------------------------------------|
G#|-------------------------------------------------------0-5-0---0-|
C#|-2-0-2---0-2---0-2-0-2---0-2---0-2-0-2---0-2---0-2-5-5-------5---|
    1 + 2 + 3 + 4 + 1 + 2 + 3 + 4 + 1 + 2 + 3 + 4 + 1 + 2 + 3 + 4 +

0:28
F#|-----------------------------------------------------------------|
C#|-----------------------------------------------------------------|
G#|-----------------------------------------------------------------|
C#|-2-0-2-------------------------0-2-0-2---------2-0-------------0-|
    1 + 2 + 3 + 4 + 1 + 2 + 3 + 4 + 1 + 2 + 3 + 4 + 1 + 2 + 3 + 4 +

F#|-----------------------------------------------------------------|
C#|-----------------------------------------------------------------|
G#|-----------------------------------------------------------------|
C#|-2-0-2-------------------------0-2-0-2---------2-0---------------|
    1 + 2 + 3 + 4 + 1 + 2 + 3 + 4 + 1 + 2 + 3 + 4 + 1 + 2 + 3 + 4 +

0:39
F#|-----------------------------------------------------------------|
C#|-----------------------------------------------------------------|
G#|-----------------------------------------------------------------|
C#|-2-2---2-2---2-2-----------------2-0-2---2-0-2-5---5-5-7---7-7-7-|
    1 + 2 + 3 + 4 + 1 + 2 + 3 + 4 + 1 + 2 + 3 + 4 + 1 + 2 + 3 + 4 +

F#|-----------------------------------------------------------------|
C#|-----------------------------------------------------------------|
G#|-----------------------------------------------------------------|
C#|-2-2---2-2---2-2-----------------2-0-2---2-2-2-5---5-5-7-7-7-7-7-|
    1 + 2 + 3 + 4 + 1 + 2 + 3 + 4 + 1 + 2 + 3 + 4 + 1 + 2 + 3 + 4 +

0:50
F#|-----------------------------------------------------------------|
C#|-----------------------------------------------------------------|
G#|-3-3-3-3-3-3-3-3-3-3-3-3-3-3-3---2-2-2-2-2-2-2-2-----------------|
C#|-------------------------------------------------5-5-5-5-0-0-0-0-|
    1 + 2 + 3 + 4 + 1 + 2 + 3 + 4 + 1 + 2 + 3 + 4 + 1 + 2 + 3 + 4 +

F#|-------------------------------------------------------------------|
C#|o-----------------------------------------------------------------o|
G#|o-3-3-3-3-3-3-3-3-3-3-3-3-3-3-3---2-2-2-2-2---2-------------------o| x3
C#|--------------------------------------------------5---5---0---0----|
     1 + 2 + 3 + 4 + 1 + 2 + 3 + 4 + 1 + 2 + 3 + 4 + 1 + 2 + 3 + 4 +

1:13
F#|-----------------------------------------------------------------|
C#|-----------------------------------------------------------------|
G#|-----------0-2-------------------3-3-3-3-3-3-3-3-----------------|
C#|-2-0-2---5-----5---5-5-5-5-5-5-5-----------------0-0-0-0-0-0-0-0-|
    1 + 2 + 3 + 4 + 1 + 2 + 3 + 4 + 1 + 2 + 3 + 4 + 1 + 2 + 3 + 4 +

1:19
F#|-----------------------------------------------------------------|
C#|-----------------------------------------------------------------|
G#|-----------------------------------------------------------------|
C#|-2-0-2-------------------------0-2-0-2---------2-0---0---0---0-0-|
    1 + 2 + 3 + 4 + 1 + 2 + 3 + 4 + 1 + 2 + 3 + 4 + 1 + 2 + 3 + 4 +

F#|-----------------------------------------------------------------|
C#|-----------------------------------------------------------------|
G#|-----------------------------------------------------------------|
C#|-2-0-2-------------------------0-2-0-2---------2-0---0---0---0---|
    1 + 2 + 3 + 4 + 1 + 2 + 3 + 4 + 1 + 2 + 3 + 4 + 1 + 2 + 3 + 4 +

1:30
F#|-----------------------------------------------------------------|
C#|-----------------------------------------------------------------|
G#|-----------------------------------------------------------------|
C#|-2-2---2-2---2-2-----------------2-0-2---2-0-2-5---5-5-7---7-7-7-|
    1 + 2 + 3 + 4 + 1 + 2 + 3 + 4 + 1 + 2 + 3 + 4 + 1 + 2 + 3 + 4 +

F#|-----------------------------------------------------------------|
C#|-----------------------------------------------------------------|
G#|-----------------------------------------------------------------|
C#|-2-2---2-2---2-2-----------------2-0-2---2-2-2-5---5-5-7-7-7-7-7-|
    1 + 2 + 3 + 4 + 1 + 2 + 3 + 4 + 1 + 2 + 3 + 4 + 1 + 2 + 3 + 4 +

1:41
F#|-----------------------------------------------------------------|
C#|-----------------------------------------------------------------|
G#|-3-3-3-3-3-3-3-3-3-3-3-3-3-3-3---2-2-2-2-2-2-2-2-----------------|
C#|-------------------------------------------------5-5-5-5-0-0-0-0-|
    1 + 2 + 3 + 4 + 1 + 2 + 3 + 4 + 1 + 2 + 3 + 4 + 1 + 2 + 3 + 4 +

F#|-----------------------------------------------------------------|
C#|-----------------------------------------------------------------|
G#|-3-3-3-3-3-3-3-3-3-3-3-3-3-3-3---2-2-2-2-2-2-2-2-----------------|
C#|-------------------------------------------------5---5---0---0---|
    1 + 2 + 3 + 4 + 1 + 2 + 3 + 4 + 1 + 2 + 3 + 4 + 1 + 2 + 3 + 4 +

F#|-----------------------------------------------------------------|
C#|-----------------------------------------------------------------|
G#|-3-3-3-3-3-3-3-3-3-3-3-3-3-3-3---2-2-2-2-2-2-2-2-----------------|
C#|-------------------------------------------------5-5-5-5-0-0-0-0-|
    1 + 2 + 3 + 4 + 1 + 2 + 3 + 4 + 1 + 2 + 3 + 4 + 1 + 2 + 3 + 4 +

F#|-----------------------------------------------------------------|
C#|-----------------------------------------------------------------|
G#|-3-3-3-3-3-3-3-3-3-3-3-3-3-3-3---2-2-2-2-2---2-------------------|
C#|-------------------------------------------------5---5---0---0---|
    1 + 2 + 3 + 4 + 1 + 2 + 3 + 4 + 1 + 2 + 3 + 4 + 1 + 2 + 3 + 4 +

2:04
F#|-----------------------------------------------------------------|
C#|-----------------------------------------------------------------|
G#|-3-3-3-3-3-3-3-3-3-3-3-3-3-3-3---2-2-2-2-2-2-2---2-2-2-2-2-2-2-2-|
C#|-----------------------------------------------------------------|
    1 + 2 + 3 + 4 + 1 + 2 + 3 + 4 + 1 + 2 + 3 + 4 + 1 + 2 + 3 + 4 +

F#|-----------------------------------------------------------------|
C#|-----------------------------------------------------------------|
G#|-3-3-3-3-3-3-3-3-3-3-3-3-3-3-3-3-2-2-2-2-2-2-2-2-5-5-5-5-5-5-5-5-|
C#|-----------------------------------------------------------------|
    1 + 2 + 3 + 4 + 1 + 2 + 3 + 4 + 1 + 2 + 3 + 4 + 1 + 2 + 3 + 4 +

2:15
F#|---------------------------------|
C#|---------------------------------|
G#|---------------------------------|
C#|-2-2---2-4-4---4-5-5---5-7-7-----|
    1 + 2 + 3 + 4 + 1 + 2 + 3 + 4 + 

F#|-----------------------------------------------------------------|
C#|-----------------------------------------------------------------|
G#|-3-3-3-3-3-3-3-3-3-3-3-3-3-3-3-3-5-5-5-5-5-5-5-5-5-5-5-5-5-5-5-5-|
C#|-----------------------------------------------------------------|
    1 + 2 + 3 + 4 + 1 + 2 + 3 + 4 + 1 + 2 + 3 + 4 + 1 + 2 + 3 + 4 +

F#|-----------------------------------------------------------------|
C#|-----------------------------------------------------------------|
G#|-7-7-7-7-7-7-7-7-7-7-7-7-7-7-7-7-3-3-3-3-3-3-3-3-3-3-3-3-3-3-3-3-|
C#|-----------------------------------------------------------------|
    1 + 2 + 3 + 4 + 1 + 2 + 3 + 4 + 1 + 2 + 3 + 4 + 1 + 2 + 3 + 4 +

2:29
F#|-----------------------------------------------------------------|
C#|-----------------------------------------------------------------|
G#|-------5-------------------------------5-------------------------|
C#|-5-----------3-------3-3-3-0-2-3-5-----------3-------3-3-3-0-2-3-|
    1 + 2 + 3 + 4 + 1 + 2 + 3 + 4 + 1 + 2 + 3 + 4 + 1 + 2 + 3 + 4 +

2:35
F#|------------------------------------------------------------------|
C#|o-----------------------------------------------------------------|
G#|o-----------------------------------------------------------------|
C#|--5-5-5-5-5-5-5-5-5-5-5-5-5-5-5-5-3-3-3-3-3-3-3-3-3-3-3-3-3-3-3-3-|
     1 + 2 + 3 + 4 + 1 + 2 + 3 + 4 + 1 + 2 + 3 + 4 + 1 + 2 + 3 + 4 +
 
F#|------------------------------------------------------------------|
C#|-----------------------------------------------------------------o|
G#|-----------------------------------------------------------------o|
C#|-2-2-2-2-2-2-2-2-2-2-2-2-2-2-2-2-0-0-0-0-0-0-0-0-0-0-0-0-0-0-0-0--|
    1 + 2 + 3 + 4 + 1 + 2 + 3 + 4 + 1 + 2 + 3 + 4 + 1 + 2 + 3 + 4 +

2:57
F#|---------------------------------|
C#|---------------------------------|
G#|-------------0-0-0-2-2-2-3-5-5-5-|
C#|-2-2-2-5-5-5---------------------|
    1 + 2 + 3 + 4 + 1 + 2 + 3 + 4 + 

3:01
F#|-----------------------------------------------------------------|
C#|-----------------------------------------------------------------|
G#|-3-3-3-3-3-3-3-3-3-3-3-3-3-3-3---2-2-2-2-2-2-2-2-----------------|
C#|-------------------------------------------------5-5-5-5-0-0-0-0-|
    1 + 2 + 3 + 4 + 1 + 2 + 3 + 4 + 1 + 2 + 3 + 4 + 1 + 2 + 3 + 4 +

F#|-------------------------------------------------------------------|
C#|o-----------------------------------------------------------------o|
G#|o-3-3-3-3-3-3-3-3-3-3-3-3-3-3-3---2-2-2-2-2-2-2-2-----------------o| x3
C#|---------------------------------------------- ---5---5---0---0----|
     1 + 2 + 3 + 4 + 1 + 2 + 3 + 4 + 1 + 2 + 3 + 4 + 1 + 2 + 3 + 4 +

3:22
F#|-----------------------------------------------------------------|
C#|-----------------------------------------------------------------|
G#|-3-3-3-3-3-3-3-3-3-3-3-3-3-3-3---2-2-2-2-2-2-2---2-2-2-2-2-2-2-2-|
C#|-----------------------------------------------------------------|
    1 + 2 + 3 + 4 + 1 + 2 + 3 + 4 + 1 + 2 + 3 + 4 + 1 + 2 + 3 + 4 +

F#|-----------------------------------------------------------------|
C#|-----------------------------------------------------------------|
G#|-3-3-3-3-3-3-3-3-3-3-3-3-3-3-3-3-2-2-2-2-2-2-2-2-5-5-5-5-5-5-5-5-|
C#|-----------------------------------------------------------------|
    1 + 2 + 3 + 4 + 1 + 2 + 3 + 4 + 1 + 2 + 3 + 4 + 1 + 2 + 3 + 4 +

3:34
F#|---------------------------------------------------------------------------------|
C#|---------------------------------------------------------------------------------|
G#|-------------------------------0---0-0-0-3-2-0-3-2-------------------------------|
C#|-2-0-2---2-222-4---4-4-5---5-5-------------------------------------2-5-0-2-------|
    1 + 2 + 3 + 4 + 1 + 2 + 3 + 4 + 1 + 2 + 3 + 4 + 1 + 2 + 3 + 4 + 1 + 2 + 3 + 4 +

Tabbed by Dave Vucko
comments
We did not receive enough feedback on this tab! Please rate:
print report bad tab
1 2 3 4 5
I want to post or [tab]
guest
You may want to rate the tab now too:
select rating
Please do not post tabs as comments. Select "correction" instead!