Oops, an error
Loading. Please wait.

Shadows Die Bass Tab

ver1
ver1

Whole song

Interactive

More versions @911Tabs.com
631 views 3 this week
no commentswrite comment
1 2 3 4 5
worth learning
x 2
Autoscroll
+/-
esc
set tempo
stop
Difficulty
Tuning
intermediate
C G C F A D
NEW! There's an official Ultimate Guitar app which is ideal
for learning songs when you're away from computer. Get the app
WARNING: You are trying to view
                                    content from Ultimate-Guitar.com
                                    in an unauthorized application,
                                    which is prohibited.

                                    Please use an official Ultimate
                                    Guitar Tabs application for iPhone,
                                    iPad or Android to access legitimate
                                    chords, guitar, bass, and drum tabs
                                    from Ultimate-Guitar.com database.

                                    Type "ultimate guitar tabs" in Apple
                                    App Store's or Android Market's
                                    search to find the application.
Bass
Drop C (CGCF)
Legend
L - tied note
x - dead note
h - hammer on/pull off
b - bend
s - slide
~ - vibrato
g - ghost note
> - accentuated note
t - trill
M - palm mute
. - staccato
P - popping (bass)
S - slapping (bass)
+ - tapping
W - wide vibrato
< - fade in
w - whammy bar
= - tremolo picking
v - brush up
^ - brush down
V - pick stroke up
n - pick stroke down

 

-------------|-------------|----------------|
-------------|-------------|----------------|
-------------|-------------|----------------|
-------------|-------------|--1L----1--13s--|


----------------------------------------|
-----------1----------------------------|
--------1-----1-----------1--2--1-------|
--1--4-----------4--1--4-----------4----|


----------------------------------------|
----------------------------------------|
--------0--1--0-----------0--1--0-------|
--0--3-----------3--0--3-----------3----|


----------------------------------------|
-----------1----------------------------|
--------1-----1-----------1--2--1-------|
--1--4-----------4--1--4-----------4----|


----------------------------------------|
----------------------------------------|
--------0--1--0-----------0--1--0-------|
--0--3-----------3--0--3-----------3----|


----------------------------------------|
----------------------------------------|
----------------------------------------|
--1--------1M-1M-1M-1--------4----------|


----------------------------------------|
----------------------------------------|
----------------------------------------|
--0--------0M-0M-0M-0--------0M-0M-0M---|


----------------------------------------|----------------|
----------------------------------------|----------------|
----------------------------------------|----------------|
--1--------1M-1M-1M-1-------------------|----------------|


----------------------------------------|
----------------------------------------|
----------------------------------------|
--1--------1M-1M-1M-1--------4----------|


----------------------------------------|
----------------------------------------|
----------------------------------------|
--0--------0M-0M-0M-0--------0M-0M-0M---|


----------------------------------------|
----------------------------------------|
--2--2M-2M----2M-2M----2M----2M---------|
----------------------------------------|


----------------------------------------|
----------------------------------------|
--1--1M-1M----1M-1M----1M----1M---------|
----------------------------------------|


----------------------------------------|
----------------------------------------|
----------------------------------------|
--1--------1M-1M-1M-1--------4----------|


----------------------------------------|
----------------------------------------|
----------------------------------------|
--0--------0M-0M-0M-0--------0M-0M-0M---|


----------------------------------------|----------------|
----------------------------------------|----------------|
----------------------------------------|----------------|
--1--------1M-1M-1M-1-------------------|----------------|


----------------------------------------|
----------------------------------------|
----------------------------------------|
--1--------1M-1M-1M-1--------4----------|


----------------------------------------|
----------------------------------------|
----------------------------------------|
--0--------0M-0M-0M-0--------0M-0M-0M---|


----------------------------------------|
----------------------------------------|
--2--2M-2M----2M-2M----2M----2M---------|
----------------------------------------|


----------------------------------------|
----------------------------------------|
--1--1M-1M----1M-1M----1M----1M---------|
----------------------------------------|


----------------------------------------|
-----------1----------------------------|
--------1-----1-----------1--2--1-------|
--1--4-----------4--1--4-----------4----|


----------------------------------------|
----------------------------------------|
--------0--1--0-----------0--1--0-------|
--0--3-----------3--0--3-----------3----|


----------------------------------------|
-----------1----------------------------|
--------1-----1-----------1--2--1-------|
--1--4-----------4--1--4-----------4----|


----------------------------------------------------------------------------|
----------------------------------------------------------------------------|
--------------0-----1-----0-------------------------------------------------|
--0-----3-----------------------3-----0M----0M-0M-0M----0M----0M----0M------|


----------------------------------------|
----------------------------------------|
----------------------------------------|
--1--------1--1--1--1--------1--1--1----|


----------------------------------------|
----------------------------------------|
--2--------2--2--2--2--------2--2--2----|
----------------------------------------|


----------------------------------------|
----------------------------------------|
----------------------------------------|
--4--------4--4--4--4--------4--4--4----|


----------------------------------------|
----------------------------------------|
--1--------1--1--1--1--2--1-------------|
-----------------------------6--4--3----|


----------------------------------------|
----------------------------------------|
----------------------------------------|
--1--------1--1--1--1--------1--1--1----|


----------------------------------------|
----------------------------------------|
--2--------2--2--2--2--------2--2--2----|
----------------------------------------|


----------------------------------------|
----------------------------------------|
----------------------------------------|
--4--------4--4--4--4--------4--4--4----|


----------------------------------------|
----------------------------------------|
----------------------------------------|
--0--------0--0--0--3--------3--3--3----|


----------------------------------------|
----------------------------------------|
----------------------------------------|
--1--------1--1--1--1--------1--1--1----|


----------------------------------------|
----------------------------------------|
--2--------2--2--2--2--------2--2--2----|
----------------------------------------|


----------------------------------------|
----------------------------------------|
----------------------------------------|
--4--------4--4--4--4--------4--4--4----|


----------------------------------------|
----------------------------------------|
--1--------1--1--1--1--2--1-------------|
-----------------------------6--4--3----|


----------------------------------------|
----------------------------------------|
----------------------------------------|
--1--------1--1--1--1--------1--1--1----|


----------------------------------------|
----------------------------------------|
--2--------2--2--2--2--------2--2--2----|
----------------------------------------|


----------------------------------------|
----------------------------------------|
----------------------------------------|
--4--------4--4--4--4--------4--4--4----|


----------------------------------------|
----------------------------------------|
----------------------------------------|
--0--------0--0--0--3--------3--3--3----|


----------------------------------------------------------------------------|
----------------------------------------------------------------------------|
----------------------------------------------------------------------------|
--1-----------------1M----1M----1M----1-----------------1M----1M----1M------|


----------------------------------------------------------------------------|
----------------------------------------------------------------------------|
----------------------------------------------------------------------------|
--1-----------------1-----1-----1-----1-----0M-0M-0M----0M----0M----0M------|


-------|-------|-------|-------|-------|-------|-------|-------|
-------|-------|-------|-------|-------|-------|-------|-------|
-------|-------|-------|-------|-------|-------|-------|-------|
-------|-------|-------|-------|-------|-------|-------|-------|


----------------------------------------|
----------------------------------------|
----------------------------------------|
--1--------1M-1M-1M-1--------4----------|


----------------------------------------|
----------------------------------------|
----------------------------------------|
--0--------0M-0M-0M-0--------0M-0M-0M---|


----------------------------------------|-------|
----------------------------------------|-------|
----------------------------------------|-------|
--1--------1M-1M-1M-1-------------------|-------|


----------------------------------------|
----------------------------------------|
----------------------------------------|
--1--------1M-1M-1M-1--------4----------|


----------------------------------------|
----------------------------------------|
----------------------------------------|
--0--------0M-0M-0M-0--------0M-0M-0M---|


----------------------------------------|
----------------------------------------|
--2--2M-2M----2M-2M----2M----2M---------|
----------------------------------------|


----------------------------------------|
----------------------------------------|
--1--1M-1M----1M-1M----1M----1M---------|
----------------------------------------|


----------------------------------------|
-----------1----------------------------|
--------1-----1-----------1--2--1-------|
--1--4-----------4--1--4-----------4----|


----------------------------------------|
----------------------------------------|
--------0--1--0-----------0--1--0-------|
--0--3-----------3--0--3-----------3----|


----------------------------------------|
-----------1----------------------------|
--------1-----1-----------1--2--1-------|
--1--4-----------4--1--4-----------4----|


----------------------------------------------------------------------------|
----------------------------------------------------------------------------|
--------------0-----1-----0-------------------------------------------------|
--0-----3-----------------------3-----0M----0M-0M-0M----0M----0M----0M------|


----------------------------------------|
----------------------------------------|
----------------------------------------|
--1--------1--1--1--1--------1--1--1----|


----------------------------------------|
----------------------------------------|
--2--------2--2--2--2--------2--2--2----|
----------------------------------------|


----------------------------------------|
----------------------------------------|
----------------------------------------|
--4--------4--4--4--4--------4--4--4----|


----------------------------------------|
----------------------------------------|
--1--------1--1--1--1--2--1-------------|
-----------------------------6--4--3----|


----------------------------------------|
----------------------------------------|
----------------------------------------|
--1--------1--1--1--1--------1--1--1----|


----------------------------------------|
----------------------------------------|
--2--------2--2--2--2--------2--2--2----|
----------------------------------------|


----------------------------------------|
----------------------------------------|
----------------------------------------|
--4--------4--4--4--4--------4--4--4----|


----------------------------------------|
----------------------------------------|
----------------------------------------|
--0--------0--0--0--3--------3--3--3----|


----------------------------------------|
----------------------------------------|
----------------------------------------|
--1--------1--1--1--1--------1--1--1----|


----------------------------------------|
----------------------------------------|
--2--------2--2--2--2--------2--2--2----|
----------------------------------------|


----------------------------------------|
----------------------------------------|
----------------------------------------|
--4--------4--4--4--4--------4--4--4----|


----------------------------------------|
----------------------------------------|
--1--------1--1--1--1--2--1-------------|
-----------------------------6--4--3----|


----------------------------------------|
----------------------------------------|
----------------------------------------|
--1--------1--1--1--1--------1--1--1----|


----------------------------------------|
----------------------------------------|
--2--------2--2--2--2--------2--2--2----|
----------------------------------------|


----------------------------------------|
----------------------------------------|
----------------------------------------|
--4--------4--4--4--4--------4--4--4----|


----------------------------------------|----------------------------|
----------------------------------------|----------------------------|
----------------------------------------|-----------------1-----6----|
--0--------0--0--0--3--------3--3--3----|--1--1--1M-4--1M----1M------|


----------------------------------------------------------------------------|
----------------------------------------------------------------------------|
--5M-5M-5M-5M-------5M-5M-5M-5M-------5M-5M-5M-5M-------5M-5M-5M-5M---------|
----------------------------------------------------------------------------|


----------------------------|
----------------------------|
-----------------1-----6----|
--1--1--1M-4--1M----1M------|


----------------------------------------------------------------------------|
----------------------------------------------------------------------------|
--5M-5M-5M-5M-------6M-6M-6M-6M---------------------------------------------|
--------------------------------------9M-9M-9M-9M-------8M-8M-8M-8M---------|


----------------------------|
----------------------------|
-----------------1-----6----|
--1--1--1M-4--1M----1M------|


----------------------------------------------------------------------------|
----------------------------------------------------------------------------|
--5M-5M-5M-5M-------5M-5M-5M-5M-------5M-5M-5M-5M-------5M-5M-5M-5M---------|
----------------------------------------------------------------------------|


--------------------------------------------------------------------------------
--------------------------------------------------------------------------------
--2L----------------------------------2-----------------2M----2M----2M----2-----
--------------------------------------------------------------------------------


--------------------------------------------------------------------|
--------------------------------------------------------------------|
---------------------2--------------------------2-------------------|
--------------------------------------------------------------------|


----------------|----------------------------|
----------------|----------------------------|
--1-------------|-----------------1-----6----|
--------4--3----|--1--1--1M-4--1M----1M------|


----------------------------------------------------------------------------|
----------------------------------------------------------------------------|
--5M-5M-5M-5M-------5M-5M-5M-5M-------5M-5M-5M-5M-------5M-5M-5M-5M---------|
----------------------------------------------------------------------------|


----------------------------|
----------------------------|
-----------------1-----6----|
--1--1--1M-4--1M----1M------|


----------------------------------------------------------------------------|
----------------------------------------------------------------------------|
--5M-5M-5M-5M-------6M-6M-6M-6M---------------------------------------------|
--------------------------------------9M-9M-9M-9M-------8M-8M-8M-8M---------|


----------------------------|
----------------------------|
-----------------1-----6----|
--1--1--1M-4--1M----1M------|


----------------------------------------------------------------------------|
----------------------------------------------------------------------------|
--5M-5M-5M-5M-------5M-5M-5M-5M-------5M-5M-5M-5M-------5M-5M-5M-5M---------|
----------------------------------------------------------------------------|


--------------------------------------------------------------------------------
--------------------------------------------------------------------------------
--2L----------------------------------2-----------------2M----2M----2M----2-----
--------------------------------------------------------------------------------


--------------------------------------------------------------------|
--------------------------------------------------------------------|
---------------------2--------------------------2-------------------|
--------------------------------------------------------------------|


----------------|-------------|-------------|-------------|-------------|
----------------|-------------|-------------|-------------|-------------|
--1-------------|-------------|-------------|-------------|-------------|
--------4--3----|--1L----1L---|--1L----1L---|--1L----1L---|--1L----1----|


-------------|-------------|-------------|-------------|-------------|
-------------|-------------|-------------|-------------|-------------|
-------------|-------------|-------------|-------------|-------------|
-------------|-------------|-------------|-------------|-------------|


-------------|-------------|-------------|-------------|-------------|
-------------|-------------|-------------|-------------|-------------|
-------------|-------------|-------------|-------------|-------------|
-------------|-------------|-------------|-------------|-------------|


-------------|-------------|-------------|-------------|-------------|
-------------|-------------|-------------|-------------|-------------|
-------------|-------------|-------------|-------------|-------------|
-------------|-------------|-------------|-------------|-------------|


-------------|-------------|-------------|-------------|-------------|
-------------|-------------|-------------|-------------|-------------|
-------------|-------------|-------------|-------------|-------------|
-------------|-------------|-------------|-------------|-------------|


-------------|-------------|-------------|-------------|-------------|
-------------|-------------|-------------|-------------|-------------|
-------------|-------------|-------------|-------------|-------------|
-------------|-------------|-------------|--------13s--|--1-----1----|


-------------|-------------|----------------------|-------------|-------------|
-------------|-------------|----------------------|-------------|-------------|
-------------|-------------|----------------------|-------------|-------------|
--4-----4----|--0-----0----|--8s-9--8--9--8--9----|--1-----1----|--4-----4----|


-------------|----------------------|----------------------------------------|
-------------|----------------------|----------------------------------------|
-------------|----------------------|----------------------------------------|
--0-----0----|--8s-9--8--9--8--9----|--1-----1M-1M-1M----1M----1M----1M------|


----------------------------------------|
----------------------------------------|
----------------------------------------|
--4-----4M-4M-4M----4M----4M----4M------|


----------------------------------------|----------------------|
----------------------------------------|----------------------|
----------------------------------------|----------------------|
--0-----0M-0M-0M----0M----0M----0M------|--8s-9--8--9--8--9----|


----------------------------------------------------|
----------------------------------------------------|
----------------------------------------------------|
--1-----1M-1M-1M----1M----1M----1M----1M----1M------|


----------------------------------------------------|
----------------------------------------------------|
----------------------------------------------------|
--4-----4M-4M-4M----4M----4M----4M----4M----4M------|


----------------------------------------------------|
----------------------------------------------------|
----------------------------------------------------|
--0-----0M-0M-0M----0M----0M----0M----0M----0M------|


----------------------------|----------------------------------------|
----------------------------|----------------------------------------|
----------------------------|--5--5--6--5--5--6--5--5--6--5--5--6----|
--8s-9--8--9--8--9--8--9----|----------------------------------------|


----------------------------------------------------------------------------|
----------------------------------------------------------------------------|
--0M----0M-0M-0M----6-----0-----0-----8-----0M----0M----8-----0M----0M------|
----------------------------------------------------------------------------|


----------------------------------------|
----------------------------------------|
--6--0M-4--0M-0M-0M-6--0M-0M-6--0M-0M---|
----------------------------------------|


----------------------------------------|
----------------------------------------|
----------------------------------------|
--1--------1--1--1--1--------1--1--1----|


----------------------------------------|
----------------------------------------|
--2--------2--2--2--2--------2--2--2----|
----------------------------------------|


----------------------------------------|
----------------------------------------|
----------------------------------------|
--4--------4--4--4--4--------4--4--4----|


----------------------------------------|
----------------------------------------|
--1--------1--1--1--1--2--1-------------|
-----------------------------6--4--3----|


----------------------------------------|
----------------------------------------|
----------------------------------------|
--1--------1--1--1--1--------1--1--1----|


----------------------------------------|
----------------------------------------|
--2--------2--2--2--2--------2--2--2----|
----------------------------------------|


----------------------------------------|
----------------------------------------|
----------------------------------------|
--4--------4--4--4--4--------4--4--4----|


----------------------------------------|
----------------------------------------|
----------------------------------------|
--0--------0--0--0--3--------3--3--3----|


----------------------------------------|
----------------------------------------|
----------------------------------------|
--1--------1--1--1--1--------1--1--1----|


----------------------------------------|
----------------------------------------|
--2--------2--2--2--2--------2--2--2----|
----------------------------------------|


----------------------------------------|
----------------------------------------|
----------------------------------------|
--4--------4--4--4--4--------4--4--4----|


----------------------------------------|
----------------------------------------|
--1--------1--1--1--1--2--1-------------|
-----------------------------6--4--3----|


----------------------------------------|
----------------------------------------|
----------------------------------------|
--1--------1--1--1--1--------1--1--1----|


----------------------------------------|
----------------------------------------|
--2--------2--2--2--2--------2--2--2----|
----------------------------------------|


----------------------------------------|
----------------------------------------|
----------------------------------------|
--4--------4--4--4--4--------4--4--4----|


----------------------------------------|----------------------|
----------------------------------------|----------------------|
----------------------------------------|----------------------|
--0--------0--0--0--3--------3--3--3----|--1M-1M-1M-1M-1M-1M---|


----------------------|----------------------|----------------------|
----------------------|----------------------|----------------------|
----------------------|----------------------|--5--5--5--5--5--5----|
--4M-4M-4M-4M-4M-4M---|--0M-0M-0M-0M-0M-0M---|----------------------|


----------------------|----------------------|----------------------|
----------------------|----------------------|----------------------|
----------------------|----------------------|----------------------|
--1M-1M-1M-1M-1M-1M---|--4M-4M-4M-4M-4M-4M---|--0M-0M-0M-0M-0M-0M---|


----------------------|----------------------|----------------------|
----------------------|----------------------|----------------------|
--5--5--5--5--5--5----|----------------------|----------------------|
----------------------|--1M-1M-1M-1M-1M-1M---|--4M-4M-4M-4M-4M-4M---|


----------------------|----------------------|-------|-------|-------|-------|
----------------------|----------------------|-------|-------|-------|-------|
----------------------|--5--5--5--5--5--5----|-------|-------|-------|-------|
--0M-0M-0M-0M-0M-0M---|----------------------|-------|-------|-------|-------| 
comments
We did not receive enough feedback on this tab! Please rate:
print report bad tab
1 2 3 4 5
I want to post or [tab]
guest
You may want to rate the tab now too:
select rating
Please do not post tabs as comments. Select "correction" instead!