Oops, an error
Loading. Please wait.

Shadows Die Tab

ver1
ver1

Whole song

Interactive

More versions @911Tabs.com
9,953 views 30 this week
1 commentread comment
1 2 3 4 5
excellent!
x 4
Autoscroll
+/-
esc
set tempo
stop
Contributor
Difficulty
Tuning
intermediate
C# G# C# F# A# D#
Hey! There's an official Ultimate Guitar app which is ideal
for learning songs when you're away from computer. Get the app
WARNING: You are trying to view
                                    content from Ultimate-Guitar.com
                                    in an unauthorized application,
                                    which is prohibited.

                                    Please use an official Ultimate
                                    Guitar Tabs application for iPhone,
                                    iPad or Android to access legitimate
                                    chords, guitar, bass, and drum tabs
                                    from Ultimate-Guitar.com database.

                                    Type "ultimate guitar tabs" in Apple
                                    App Store's or Android Market's
                                    search to find the application.
----------------------------------------------------------------------------
                             Shadows Die
                           Black Veil Brides
----------------------------------------------------------------------------

“Wretched and Divine” has to be my favorite BVB albums. So much beauty, so much 
passion, so much... guitar solo insanity! Shadows Die is my favorite off the 
album. The instrumentals are incredible. Enjoy!

Username: dkm817 (same on X box live)
Youtube Cover: http://www.youtube.com/watch?v=6GAqTnIyA0k
Email: guitardrums@rockfan.com

Guitar 1 Rhythmic (C# G# C# F# A# D#)
Guitar 2 Lead     (C# G# C# F# A# D#)
Guitar 3 Fade In  (C# G# C# F# A# D#)
Gutiar 4 Fade In  (C# G# C# F# A# D#)

NOTE: This was exported off of guitar pro.


Guitar 1

Starts at (00:09)

  E  E  E  E  E  E     E  E  E  E  E  E      E  E   E  E   E  E   
--------------------|--------------------|-----------------------|
-----4-----4-----4--|-----7-----7-----7--|------9------9------9--|
--3-----3-----3-----|--8-----8-----8-----|--10-----10-----10-----|
--------------------|--------------------|-----------------------|
--------------------|--------------------|-----------------------|
--------------------|--------------------|-----------------------|


  E  E  E  E  E  E     E  E  E  E  E  E     E  E  E  E  E  E   
--------------------|--------------------|--------------------|
-----6-----6-----6--|-----7-----7-----7--|-----4-----4-----4--|
--7-----7-----7-----|--8-----8-----8-----|--4-----4-----4-----|
--------------------|--------------------|--------------------|
--------------------|--------------------|--------------------|
--------------------|--------------------|--------------------|


  E  E  E  E  E  E     E  E  E  E  E  E     H        Q       Q     Q     E  E   
--------------------|--------------------|----------------|--------------------|
-----6-----6-----6--|-----3-----3-----3--|----------------|--9----11----12-----|
--7-----7-----7-----|--3-----3-----3-----|--4--------8----|--------------------|
--------------------|--------------------|----------------|--------------------|
--------------------|--------------------|----------------|--------------------|
--------------------|--------------------|----------------|--------------------|


   H         Q       Q     Q    Q       E  E  E  E  E  E     E  E  E  E  E  E   
------------------|------------------|--------------------|--------------------|
--11b--------L----|--L---------------|-----4-----4-----4--|-----7-----7-----7--|
------------------|-------10----7----|--3-----3-----3-----|--8-----8-----8-----|
------------------|------------------|--------------------|--------------------|
------------------|------------------|--------------------|--------------------|
------------------|------------------|--------------------|--------------------|


   E  E   E  E   E  E     E  E  E  E  E  E     E  E  E  E  E  E   
-----------------------|--------------------|--------------------|
------9------9------9--|-----6-----6-----6--|-----7-----7-----7--|
--10-----10-----10-----|--7-----7-----7-----|--8-----8-----8-----|
-----------------------|--------------------|--------------------|
-----------------------|--------------------|--------------------|
-----------------------|--------------------|--------------------|


  E  E  E  E  E  E     E  E  E  E  E  E     E  E  E  E  E  E   
--------------------|--------------------|--------------------|
-----4-----4-----4--|-----6-----6-----6--|-----3-----3-----3--|
--4-----4-----4-----|--7-----7-----7-----|--3-----3-----3-----|
--------------------|--------------------|--------------------|
--------------------|--------------------|--------------------|
--------------------|--------------------|--------------------|


  E  E  E  E  E  E     E  E  E  E  E  E      E  E   E  E   E  E   
--------------------|--------------------|-----------------------|
-----4-----4-----4--|-----7-----7-----7--|------9------9------9--|
--3-----3-----3-----|--8-----8-----8-----|--10-----10-----10-----|
--------------------|--------------------|-----------------------|
--------------------|--------------------|-----------------------|
--------------------|--------------------|-----------------------|


  E  E  E  E  E  E     E  E  E  E  E  E     E  E  E  E  E  E   
--------------------|--------------------|--------------------|
-----6-----6-----6--|-----7-----7-----7--|-----4-----4-----4--|
--7-----7-----7-----|--8-----8-----8-----|--4-----4-----4-----|
--------------------|--------------------|--------------------|
--------------------|--------------------|--------------------|
--------------------|--------------------|--------------------|


  E  E  E  E  E  E     E  E  E  E  E  E     H        Q       Q     Q     E  E   
--------------------|--------------------|----------------|--------------------|
-----6-----6-----6--|-----3-----3-----3--|----------------|--9----11----12-----|
--7-----7-----7-----|--3-----3-----3-----|--4--------8----|--------------------|
--------------------|--------------------|----------------|--------------------|
--------------------|--------------------|----------------|--------------------|
--------------------|--------------------|----------------|--------------------|


   H         Q       Q     Q    Q       H        Q      Q      
------------------|------------------|------------------------|
--11b--------L----|--L---------------|------------------------|
------------------|-------10----7----|------------------------|
------------------|------------------|--1--------L----/13\----|
------------------|------------------|--1--------L----/13\----|
------------------|------------------|--1--------L----/13\----|


  |--3--|  |--3--|  |--3--|  |--3--|     |--3--|  |--3--|  |--3--|  |--3--|   
  E  E  E  E  E  E  E  E  E  E  E  E     E  E  E  E  E  E  E  E  E  E  E  E   
--------------------------------------|--------------------------------------|
--------------------------------------|--------------------------------------|
--------------------------------------|--------------------------------------|
-----------1--------------------------|--------------------------------------|
--------1-----1-----------1--2--1-----|--------0--1--0-----------0--1--0-----|
--1--4-----------4--1--4-----------4--|--0--3-----------3--0--3-----------3--|


  |--3--|  |--3--|  |--3--|  |--3--|     |--3--|  |--3--|  |--3--|  |--3--|   
  E  E  E  E  E  E  E  E  E  E  E  E     E  E  E  E  E  E  E  E  E  E  E  E   
--------------------------------------|--------------------------------------|
--------------------------------------|--------------------------------------|
--------------------------------------|--------------------------------------|
-----------1--------------------------|--------------------------------------|
--------1-----1-----------1--2--1-----|--------0--1--0-----------0--1--0-----|
--1--4-----------4--1--4-----------4--|--0--3-----------3--0--3-----------3--|


       PM PM PM                   PM PM PM      PM PM PM  
       |--3--|                    |--3--|       |--3--|   
  Q    E  E  E  Q    Q       Q    E  E  E  Q    E  E  E   
--------------------------|------------------------------|
--------------------------|------------------------------|
--------------------------|------------------------------|
--1----1--1--1--1----4----|--0----0--0--0--0----0--0--0--|
--1----1--1--1--1----4----|--0----0--0--0--0----0--0--0--|
--1----1--1--1--1----4----|--0----0--0--0--0----0--0--0--|


       PM PM PM                                            
       |--3--|                          |--3--|  |--3--|   
  Q    E  E  E  Q     Q       Q    Q    E  E  E  E  E  E   
---------------------------|------------------------------|
---------------------------|------------------------------|
---------------------------|------------------------------|
--1----1--1--1--1----/4----|--3----0----------4-----------|
--1----1--1--1--1----------|------------5--6-----6--5-----|
--1----1--1--1--1----------|---------------------------8--|


       PM PM PM                   PM PM PM      PM PM PM  
       |--3--|                    |--3--|       |--3--|   
  Q    E  E  E  Q    Q       Q    E  E  E  Q    E  E  E   
--------------------------|------------------------------|
--------------------------|------------------------------|
--------------------------|------------------------------|
--1----1--1--1--1----4----|--0----0--0--0--0----0--0--0--|
--1----1--1--1--1----4----|--0----0--0--0--0----0--0--0--|
--1----1--1--1--1----4----|--0----0--0--0--0----0--0--0--|


     PM PM    PM PM    PM    PM            PM PM    PM PM    PM    PM       
  |--3--|  |--3--|  |--3--|  |-3|       |--3--|  |--3--|  |--3--|  |-3|     
  E  E  E  E  E  E  E  E  E  E  Q       E  E  E  E  E  E  E  E  E  E  Q     
-------------------------------------|-------------------------------------|
-------------------------------------|-------------------------------------|
--4--------3--------4-----3-----1----|--3--------1--------3-----1----------|
--4----------------------------------|--3-----------------------------3----|
--2--2--2-----2--2-----2-----2-------|--1--1--1-----1--1-----1-----1-------|
-------------------------------------|-------------------------------------|


       PM PM PM                   PM PM PM      PM PM PM  
       |--3--|                    |--3--|       |--3--|   
  Q    E  E  E  Q    Q       Q    E  E  E  Q    E  E  E   
--------------------------|------------------------------|
--------------------------|------------------------------|
--------------------------|------------------------------|
--1----1--1--1--1----4----|--0----0--0--0--0----0--0--0--|
--1----1--1--1--1----4----|--0----0--0--0--0----0--0--0--|
--1----1--1--1--1----4----|--0----0--0--0--0----0--0--0--|


       PM PM PM                                            
       |--3--|                          |--3--|  |--3--|   
  Q    E  E  E  Q     Q       Q    Q    E  E  E  E  E  E   
---------------------------|------------------------------|
---------------------------|------------------------------|
---------------------------|------------------------------|
--1----1--1--1--1----/4----|--3----0----------4-----------|
--1----1--1--1--1----------|------------5--6-----6--5-----|
--1----1--1--1--1----------|---------------------------8--|


       PM PM PM                   PM PM PM      PM PM PM  
       |--3--|                    |--3--|       |--3--|   
  Q    E  E  E  Q    Q       Q    E  E  E  Q    E  E  E   
--------------------------|------------------------------|
--------------------------|------------------------------|
--------------------------|------------------------------|
--1----1--1--1--1----4----|--0----0--0--0--0----0--0--0--|
--1----1--1--1--1----4----|--0----0--0--0--0----0--0--0--|
--1----1--1--1--1----4----|--0----0--0--0--0----0--0--0--|


     PM PM    PM PM    PM    PM            PM PM    PM PM                    
  |--3--|  |--3--|  |--3--|  |-3|       |--3--|  |--3--|  |--3--|  |--3--|   
  E  E  E  E  E  E  E  E  E  E  Q       E  E  E  E  E  E  E  E  E  E  E  E   
-------------------------------------|--------------------------------------|
-------------------------------------|--------------------------------------|
--4--------3--------4-----3-----1----|--3--------1--------------------------|
--4----------------------------------|--3-----------------0--1--0-----------|
--2--2--2-----2--2-----2-----2-------|--1--1--1-----1--1-----------4--2--1--|
-------------------------------------|--------------------------------------|


  |--3--|  |--3--|  |--3--|  |--3--|     |--3--|  |--3--|  |--3--|  |--3--|   
  E  E  E  E  E  E  E  E  E  E  E  E     E  E  E  E  E  E  E  E  E  E  E  E   
--------------------------------------|--------------------------------------|
--------------------------------------|--------------------------------------|
--------------------------------------|--------------------------------------|
-----------1--------------------------|--------------------------------------|
--------1-----1-----------1--2--1-----|--------0--1--0-----------0--1--0-----|
--1--4-----------4--1--4-----------4--|--0--3-----------3--0--3-----------3--|


  |--3--|  |--3--|  |--3--|  |--3--|   
  E  E  E  E  E  E  E  E  E  E  E  E   
--------------------------------------|
--------------------------------------|
--------------------------------------|
-----------1--------------------------|
--------1-----1-----------1--2--1-----|
--1--4-----------4--1--4-----------4--|


                    PM PM PM PM PM PM PM                                 
  |--3--|  |--3--|  |-3|  |-3|  |--3--|          |--3--|       |--3--|   
  E  E  E  E  E  E  E  S  S  E  E  E  E     Q    E  E  E  Q    E  E  E   
-----------------------------------------|------------------------------|
-----------------------------------------|------------------------------|
-----------------------------------------|------------------------------|
-----------------------------------------|--1----1--1--1--1----1--1--1--|
--------0--1--0--------------------------|--1----1--1--1--1----1--1--1--|
--0--3-----------3--0--0--0--0--0--0--0--|--1----1--1--1--1----1--1--1--|


       |--3--|       |--3--|          |--3--|       |--3--|   
  Q    E  E  E  Q    E  E  E     Q    E  E  E  Q    E  E  E   
------------------------------|------------------------------|
------------------------------|------------------------------|
--4----4--4--4--4----4--4--4--|------------------------------|
--4----4--4--4--4----4--4--4--|--4----4--4--4--4----4--4--4--|
--2----2--2--2--2----2--2--2--|--4----4--4--4--4----4--4--4--|
------------------------------|--4----4--4--4--4----4--4--4--|


       |--3--|  |--3--|  |--3--|          |--3--|       |--3--|   
  Q    E  E  E  E  E  E  E  E  E     Q    E  E  E  Q    E  E  E   
----------------------------------|------------------------------|
----------------------------------|------------------------------|
--3----3--3--3--------------------|------------------------------|
--3----3--3--3--------------------|--1----1--1--1--1----1--1--1--|
--1----1--1--1--1--2--1-----------|--1----1--1--1--1----1--1--1--|
-------------------------6--4--3--|--1----1--1--1--1----1--1--1--|


       |--3--|       |--3--|          |--3--|       |--3--|   
  Q    E  E  E  Q    E  E  E     Q    E  E  E  Q    E  E  E   
------------------------------|------------------------------|
------------------------------|------------------------------|
--4----4--4--4--4----4--4--4--|------------------------------|
--4----4--4--4--4----4--4--4--|--4----4--4--4--4----4--4--4--|
--2----2--2--2--2----2--2--2--|--4----4--4--4--4----4--4--4--|
------------------------------|--4----4--4--4--4----4--4--4--|


       |--3--|       |--3--|          |--3--|       |--3--|   
  Q    E  E  E  Q    E  E  E     Q    E  E  E  Q    E  E  E   
------------------------------|------------------------------|
------------------------------|------------------------------|
------------------------------|------------------------------|
--0----0--0--0--3----3--3--3--|--1----1--1--1--1----1--1--1--|
--0----0--0--0--3----3--3--3--|--1----1--1--1--1----1--1--1--|
--0----0--0--0--3----3--3--3--|--1----1--1--1--1----1--1--1--|


       |--3--|       |--3--|          |--3--|       |--3--|   
  Q    E  E  E  Q    E  E  E     Q    E  E  E  Q    E  E  E   
------------------------------|------------------------------|
------------------------------|------------------------------|
--4----4--4--4--4----4--4--4--|------------------------------|
--4----4--4--4--4----4--4--4--|--4----4--4--4--4----4--4--4--|
--2----2--2--2--2----2--2--2--|--4----4--4--4--4----4--4--4--|
------------------------------|--4----4--4--4--4----4--4--4--|


       |--3--|  |--3--|  |--3--|          |--3--|       |--3--|   
  Q    E  E  E  E  E  E  E  E  E     Q    E  E  E  Q    E  E  E   
----------------------------------|------------------------------|
----------------------------------|------------------------------|
--3----3--3--3--------------------|------------------------------|
--3----3--3--3--------------------|--1----1--1--1--1----1--1--1--|
--1----1--1--1--1--2--1-----------|--1----1--1--1--1----1--1--1--|
-------------------------6--4--3--|--1----1--1--1--1----1--1--1--|


       |--3--|       |--3--|          |--3--|       |--3--|   
  Q    E  E  E  Q    E  E  E     Q    E  E  E  Q    E  E  E   
------------------------------|------------------------------|
------------------------------|------------------------------|
--4----4--4--4--4----4--4--4--|------------------------------|
--4----4--4--4--4----4--4--4--|--4----4--4--4--4----4--4--4--|
--2----2--2--2--2----2--2--2--|--4----4--4--4--4----4--4--4--|
------------------------------|--4----4--4--4--4----4--4--4--|


                                       PM PM PM       PM PM PM  
       |--3--|       |--3--|           |--3--|        |--3--|   
  Q    E  E  E  Q    E  E  E     E  E  E  E  E  E  E  E  E  E   
------------------------------|--------------------------------|
------------------------------|--------------------------------|
------------------------------|--------------------------------|
--0----0--0--0--3----3--3--3--|--1-----1--1--1--1-----1--1--1--|
--0----0--0--0--3----3--3--3--|--1-----1--1--1--1-----1--1--1--|
--0----0--0--0--3----3--3--3--|--1-----1--1--1--1-----1--1--1--|


        PM PM PM                            PM PM PM       PM PM PM  
        |--3--|  |--3--|  |--3--|           |--3--|        |--3--|   
  E  E  E  E  E  E  E  E  E  E  E     E  E  E  E  E  E  E  E  E  E   
-----------------------------------|--------------------------------|
-----------------------------------|--------------------------------|
-----------------------------------|--------------------------------|
--1-----1--1--1--------------------|--1-----1--1--1--1-----1--1--1--|
--1-----1--1--1--1--2--1-----------|--1-----1--1--1--1-----1--1--1--|
--1-----1--1--1-----------6--4--3--|--1-----1--1--1--1-----1--1--1--|


        PM PM PM PM PM PM PM PM PM PM                                      
        |--3--|  |-3|  |-3|  |--3--|     ---   ---   ---   ---   ---   --- 
  E  E  E  E  E  E  S  S  E  E  E  E                                       
--------------------------------------|-----|-----|-----|-----|-----|-----|
--------------------------------------|-----|-----|-----|-----|-----|-----|
--------------------------------------|-----|-----|-----|-----|-----|-----|
--1-----1--1--1--1--0--0--0--0--0--0--|-----|-----|-----|-----|-----|-----|
--1-----1--1--1--1--0--0--0--0--0--0--|-----|-----|-----|-----|-----|-----|
--1-----1--1--1--1--0--0--0--0--0--0--|-----|-----|-----|-----|-----|-----|


                   PM PM PM                   PM PM PM      PM PM PM  
  ---   ---        |--3--|                    |--3--|       |--3--|   
              Q    E  E  E  Q    Q       Q    E  E  E  Q    E  E  E   
-----|-----|--------------------------|------------------------------|
-----|-----|--------------------------|------------------------------|
-----|-----|--------------------------|------------------------------|
-----|-----|--1----1--1--1--1----4----|--0----0--0--0--0----0--0--0--|
-----|-----|--1----1--1--1--1----4----|--0----0--0--0--0----0--0--0--|
-----|-----|--1----1--1--1--1----4----|--0----0--0--0--0----0--0--0--|


       PM PM PM                                            
       |--3--|                          |--3--|  |--3--|   
  Q    E  E  E  Q     Q       Q    Q    E  E  E  E  E  E   
---------------------------|------------------------------|
---------------------------|------------------------------|
---------------------------|------------------------------|
--1----1--1--1--1----/4----|--3----0----------4-----------|
--1----1--1--1--1----------|------------5--6-----6--5-----|
--1----1--1--1--1----------|---------------------------8--|


       PM PM PM                   PM PM PM      PM PM PM  
       |--3--|                    |--3--|       |--3--|   
  Q    E  E  E  Q    Q       Q    E  E  E  Q    E  E  E   
--------------------------|------------------------------|
--------------------------|------------------------------|
--------------------------|------------------------------|
--1----1--1--1--1----4----|--0----0--0--0--0----0--0--0--|
--1----1--1--1--1----4----|--0----0--0--0--0----0--0--0--|
--1----1--1--1--1----4----|--0----0--0--0--0----0--0--0--|


     PM PM    PM PM    PM    PM            PM PM    PM PM                    
  |--3--|  |--3--|  |--3--|  |-3|       |--3--|  |--3--|  |--3--|  |--3--|   
  E  E  E  E  E  E  E  E  E  E  Q       E  E  E  E  E  E  E  E  E  E  E  E   
-------------------------------------|--------------------------------------|
-------------------------------------|--------------------------------------|
--4--------3--------4-----3-----1----|--3--------1--------------------------|
--4----------------------------------|--3-----------------0--1--0-----------|
--2--2--2-----2--2-----2-----2-------|--1--1--1-----1--1-----------4--2--1--|
-------------------------------------|--------------------------------------|


  |--3--|  |--3--|  |--3--|  |--3--|     |--3--|  |--3--|  |--3--|  |--3--|   
  E  E  E  E  E  E  E  E  E  E  E  E     E  E  E  E  E  E  E  E  E  E  E  E   
--------------------------------------|--------------------------------------|
--------------------------------------|--------------------------------------|
--------------------------------------|--------------------------------------|
-----------1--------------------------|--------------------------------------|
--------1-----1-----------1--2--1-----|--------0--1--0-----------0--1--0-----|
--1--4-----------4--1--4-----------4--|--0--3-----------3--0--3-----------3--|


  |--3--|  |--3--|  |--3--|  |--3--|   
  E  E  E  E  E  E  E  E  E  E  E  E   
--------------------------------------|
--------------------------------------|
--------------------------------------|
-----------1--------------------------|
--------1-----1-----------1--2--1-----|
--1--4-----------4--1--4-----------4--|


                    PM PM PM PM PM PM PM                                 
  |--3--|  |--3--|  |-3|  |-3|  |--3--|          |--3--|       |--3--|   
  E  E  E  E  E  E  E  S  S  E  E  E  E     Q    E  E  E  Q    E  E  E   
-----------------------------------------|------------------------------|
-----------------------------------------|------------------------------|
-----------------------------------------|------------------------------|
-----------------------------------------|--1----1--1--1--1----1--1--1--|
--------0--1--0--------------------------|--1----1--1--1--1----1--1--1--|
--0--3-----------3--0--0--0--0--0--0--0--|--1----1--1--1--1----1--1--1--|


       |--3--|       |--3--|          |--3--|       |--3--|   
  Q    E  E  E  Q    E  E  E     Q    E  E  E  Q    E  E  E   
------------------------------|------------------------------|
------------------------------|------------------------------|
--4----4--4--4--4----4--4--4--|------------------------------|
--4----4--4--4--4----4--4--4--|--4----4--4--4--4----4--4--4--|
--2----2--2--2--2----2--2--2--|--4----4--4--4--4----4--4--4--|
------------------------------|--4----4--4--4--4----4--4--4--|


       |--3--|  |--3--|  |--3--|          |--3--|       |--3--|   
  Q    E  E  E  E  E  E  E  E  E     Q    E  E  E  Q    E  E  E   
----------------------------------|------------------------------|
----------------------------------|------------------------------|
--3----3--3--3--------------------|------------------------------|
--3----3--3--3--------------------|--1----1--1--1--1----1--1--1--|
--1----1--1--1--1--2--1-----------|--1----1--1--1--1----1--1--1--|
-------------------------6--4--3--|--1----1--1--1--1----1--1--1--|


       |--3--|       |--3--|          |--3--|       |--3--|   
  Q    E  E  E  Q    E  E  E     Q    E  E  E  Q    E  E  E   
------------------------------|------------------------------|
------------------------------|------------------------------|
--4----4--4--4--4----4--4--4--|------------------------------|
--4----4--4--4--4----4--4--4--|--4----4--4--4--4----4--4--4--|
--2----2--2--2--2----2--2--2--|--4----4--4--4--4----4--4--4--|
------------------------------|--4----4--4--4--4----4--4--4--|


       |--3--|       |--3--|     |--3--|  |--3--|  |--3--|  |--3--|   
  Q    E  E  E  Q    E  E  E     E  E  E  E  E  E  E  E  E  E  E  E   
------------------------------|--------------------------------------|
------------------------------|--------------------------------------|
------------------------------|--------------------------------------|
--0----0--0--0--3----3--3--3--|--------------------------------------|
--0----0--0--0--3----3--3--3--|--------------------------------------|
--0----0--0--0--3----3--3--3--|--1--1--1--1--1--1--1--1--1--1--4--4--|


  |--3--|  |--3--|  |--3--|  |--3--|     |--3--|  |--3--|  |--3--|  |--3--|   
  E  E  E  E  E  E  E  E  E  E  E  E     E  E  E  E  E  E  E  E  E  E  E  E   
--------------------------------------|--------------------------------------|
--------------------------------------|--------------------------------------|
--------------------------------------|--------------------------------------|
--------------------------------------|--------------------------------------|
--2--2--2--2--2--2--2--2--2--2--2--2--|--------------------------------------|
--------------------------------------|--4--4--4--4--4--4--4--4--4--4--4--4--|


  |--3--|  |--3--|  |--3--|  |--3--|     |--3--|  |--3--|  |--3--|  |--3--|   
  E  E  E  E  E  E  E  E  E  E  E  E     E  E  E  E  E  E  E  E  E  E  E  E   
--------------------------------------|--------------------------------------|
--------------------------------------|--------------------------------------|
--------------------------------------|--------------------------------------|
--------------------------------------|--------------------------------------|
--1--1--1--1--1--1--1--2--1-----------|--------------------------------------|
-----------------------------6--4--3--|--1--1--1--1--1--1--1--1--1--1--4--4--|


  |--3--|  |--3--|  |--3--|  |--3--|     |--3--|  |--3--|  |--3--|  |--3--|   
  E  E  E  E  E  E  E  E  E  E  E  E     E  E  E  E  E  E  E  E  E  E  E  E   
--------------------------------------|--------------------------------------|
--------------------------------------|--------------------------------------|
--------------------------------------|--------------------------------------|
--------------------------------------|--------------------------------------|
--2--2--2--2--2--2--2--2--2--2--2--2--|--------------------------------------|
--------------------------------------|--4--4--4--4--4--4--4--4--4--4--4--4--|


                                               PM    PM    PM     
  |--3--|  |--3--|  |--3--|  |--3--|                              
  E  E  E  E  E  E  E  E  E  E  E  E     E  E  E  E  E  E  E  E   
--------------------------------------|--------------------------|
--------------------------------------|--------------------------|
--------------------------------------|-----------------3-----8--|
--------------------------------------|--1--1--1--4--1--3--1--8--|
--------------------------------------|--1--1--1--4--1--1--1--6--|
--0--0--0--0--0--0--3--3--3--3--3--3--|--1--1--1--4--1-----1-----|


  PM PM PM PM PM PM PM PM PM PM PM PM PM PM PM PM          PM    PM    PM     
  |--3--|     |--3--|     |--3--|     |--3--|                                 
  S  S  S  E  S  S  S  E  S  S  S  E  S  S  S  E     E  E  E  E  E  E  E  E   
--------------------------------------------------|--------------------------|
--------------------------------------------------|--------------------------|
--------------------------------------------------|-----------------3-----8--|
--------------------------------------------------|--1--1--1--4--1--3--1--8--|
--5--5--5--5--5--5--5--5--5--5--5--5--5--5--5--5--|--1--1--1--4--1--1--1--6--|
--------------------------------------------------|--1--1--1--4--1-----1-----|


  PM PM PM PM PM PM PM PM PM PM PM PM PM PM PM PM    PM    PM    PM    PM     
  |--3--|     |--3--|     |--3--|     |--3--|                                 
  S  S  S  E  S  S  S  E  S  S  S  E  S  S  S  E     E  E  E  E  E  E  E  E   
--------------------------------------------------|--------------------------|
--------------------------------------------------|--------------------------|
--------------------------------------------------|-----------------3-----8--|
--------------------------------------------------|--1--1--1--4--1--3--1--8--|
--5--5--5--5--6--6--6--6--------------------------|--1--1--1--4--1--1--1--6--|
--------------------------9--9--9--9--8--8--8--8--|--1--1--1--4--1-----1-----|


  PM PM PM PM PM PM PM PM PM PM PM PM PM PM PM PM  
  |--3--|     |--3--|     |--3--|     |--3--|      
  S  S  S  E  S  S  S  E  S  S  S  E  S  S  S  E   
--------------------------------------------------|
--------------------------------------------------|
--------------------------------------------------|
--------------------------------------------------|
--5--5--5--5--5--5--5--5--5--5--5--5--5--5--5--5--|
--------------------------------------------------|


          PM PM PM                                     
          |--3--|                                      
  Q    E  S  S  S  E  S E  S E     H        Q    Q     
--------------------------------|---------------------|
--------------------------------|---------------------|
--4----L--4--4--4--4----4----4--|--3------------------|
--4----L--4--4--4--4----4----4--|--3--------4----3----|
--2----L--2--2--2--2----2----2--|--1--------4----3----|
--------------------------------|-----------4----3----|


        PM    PM    PM       PM PM PM PM PM PM PM PM PM PM PM PM PM PM PM PM  
                             |--3--|     |--3--|     |--3--|     |--3--|      
  E  E  E  E  E  E  E  E     S  S  S  E  S  S  S  E  S  S  S  E  S  S  S  E   
--------------------------|--------------------------------------------------|
--------------------------|--------------------------------------------------|
-----------------3-----8--|--------------------------------------------------|
--1--1--1--4--1--3--1--8--|--------------------------------------------------|
--1--1--1--4--1--1--1--6--|--5--5--5--5--5--5--5--5--5--5--5--5--5--5--5--5--|
--1--1--1--4--1-----1-----|--------------------------------------------------|


        PM    PM    PM       PM PM PM PM PM PM PM PM PM PM PM PM PM PM PM PM  
                             |--3--|     |--3--|     |--3--|     |--3--|      
  E  E  E  E  E  E  E  E     S  S  S  E  S  S  S  E  S  S  S  E  S  S  S  E   
--------------------------|--------------------------------------------------|
--------------------------|--------------------------------------------------|
-----------------3-----8--|--------------------------------------------------|
--1--1--1--4--1--3--1--8--|--------------------------------------------------|
--1--1--1--4--1--1--1--6--|--5--5--5--5--6--6--6--6--------------------------|
--1--1--1--4--1-----1-----|--------------------------9--9--9--9--8--8--8--8--|


  PM    PM    PM    PM       PM PM PM PM PM PM PM PM PM PM PM PM PM PM PM PM  
                             |--3--|     |--3--|     |--3--|     |--3--|      
  E  E  E  E  E  E  E  E     S  S  S  E  S  S  S  E  S  S  S  E  S  S  S  E   
--------------------------|--------------------------------------------------|
--------------------------|--------------------------------------------------|
-----------------3-----8--|--------------------------------------------------|
--1--1--1--4--1--3--1--8--|--------------------------------------------------|
--1--1--1--4--1--1--1--6--|--5--5--5--5--5--5--5--5--5--5--5--5--5--5--5--5--|
--1--1--1--4--1-----1-----|--------------------------------------------------|


          PM PM PM                                                         
          |--3--|                                                          
  Q    E  S  S  S  E  S E  S E     H        Q    Q       W                 
--------------------------------|---------------------|-------------------|
--------------------------------|---------------------|-------------------|
--4----L--4--4--4--4----4----4--|--3------------------|-------------------|
--4----L--4--4--4--4----4----4--|--3--------4----3----|--1----------------|
--2----L--2--2--2--2----2----2--|--1--------4----3----|--1----------------|
--------------------------------|-----------4----3----|--1----------------|


  W                   W                   W                                     
-------------------|-------------------|-------------------|-------------------|
-------------------|-------------------|-------------------|-------------------|
-------------------|-------------------|-------------------|-------------------|
--L----------------|--L----------------|--L----------------|-------------------|
--L----------------|--L----------------|--L----------------|-------------------|
--L----------------|--L----------------|--L----------------|-------------------|


                                                              Q    Q    Q     
-------------------|-------------------|-------------------|-----------------|
-------------------|-------------------|-------------------|-------7---------|
-------------------|-------------------|-------------------|------------8----|
-------------------|-------------------|-------------------|-----------------|
-------------------|-------------------|-------------------|-----------------|
-------------------|-------------------|-------------------|-----------------|


  Q    Q    Q       H        Q        H        Q        H        Q     
-----------------|----------------|--13--------L----|--14--------L----|
-------7---------|--0--------L----|-----------------|-----------------|
--L--------------|----------------|-----------------|-----------------|
------------8----|----------------|-----------------|-----------------|
-----------------|----------------|-----------------|-----------------|
-----------------|----------------|-----------------|-----------------|


   H        Q        Q     H            E   E   E   E   E   E   
--11--------L----|--10-----L--------|--------------------------|
-----------------|--------11--------|--11--12--11--12--11--12--|
-----------------|------------------|--------------------------|
-----------------|------------------|--------------------------|
-----------------|------------------|--------------------------|
-----------------|------------------|--------------------------|


  Q    Q    Q       Q    Q    Q       H        Q        H        Q     
-----------------|-----------------|----------------|--13--------L----|
-------7---------|-------7---------|--0--------L----|-----------------|
------------8----|--L--------------|----------------|-----------------|
-----------------|------------8----|----------------|-----------------|
-----------------|-----------------|----------------|-----------------|
-----------------|-----------------|----------------|-----------------|


   H        Q        H        Q        Q     H         
--14--------L----|--11--------L----|--10-----L--------|
-----------------|-----------------|--------11--------|
-----------------|-----------------|------------------|
-----------------|-----------------|------------------|
-----------------|-----------------|------------------|
-----------------|-----------------|------------------|


   E   E   E   E   E   E      Q     Q    Q       Q     Q     E  E   
--------------------------|-------------------|--------------------|
--11--12--11--12--11--12--|--11---------------|--9----11----12-----|
--------------------------|--------11----8----|--------------------|
--------------------------|-------------------|--------------------|
--------------------------|-------------------|--------------------|
--------------------------|-------------------|--------------------|


   H         Q       H          Q        H        Q       H        Q     
------------------|-------------------|----------------|----------------|
--11b--------L----|--L----------------|----------------|----------------|
------------------|-------------------|----------------|----------------|
------------------|-----------/13\----|--1--------1----|--4--------4----|
------------------|-----------/13\----|--1--------1----|--4--------4----|
------------------|-----------/13\----|--1--------1----|--4--------4----|


  H        Q        E  E  E  E  E  E     H        Q       H        Q     
----------------|---------------------|----------------|----------------|
----------------|---------------------|----------------|----------------|
----------------|---------------------|----------------|----------------|
--0--------0----|---------------------|--1--------1----|--4--------4----|
--0--------0----|---------------------|--1--------1----|--4--------4----|
--0--------0----|--/8--9--8--9--8--9--|--1--------1----|--4--------4----|


                                            PM PM PM PM PM PM  
  H        Q        E  E  E  E  E  E     E  S  S  E  E  E  E   
----------------|---------------------|-----------------------|
----------------|---------------------|-----------------------|
----------------|---------------------|-----------------------|
--0--------0----|---------------------|--1--1--1--1--1--1--1--|
--0--------0----|---------------------|--1--1--1--1--1--1--1--|
--0--------0----|--/8--9--8--9--8--9--|--1--1--1--1--1--1--1--|


     PM PM PM PM PM PM       PM PM PM PM PM PM                        
  E  S  S  E  E  E  E     E  S  S  E  E  E  E      E  E  E  E  E  E   
-----------------------|-----------------------|---------------------|
-----------------------|-----------------------|---------------------|
-----------------------|-----------------------|---------------------|
--4--4--4--4--4--4--4--|--0--0--0--0--0--0--0--|---------------------|
--4--4--4--4--4--4--4--|--0--0--0--0--0--0--0--|---------------------|
--4--4--4--4--4--4--4--|--0--0--0--0--0--0--0--|--/8--9--8--9--8--9--|


     PM PM PM PM PM PM       PM PM PM PM PM PM       PM PM PM PM PM PM  
  E  S  S  E  E  E  E     E  S  S  E  E  E  E     E  S  S  E  E  E  E   
-----------------------|-----------------------|-----------------------|
-----------------------|-----------------------|-----------------------|
-----------------------|-----------------------|-----------------------|
--1--1--1--1--1--1--1--|--4--4--4--4--4--4--4--|--0--0--0--0--0--0--0--|
--1--1--1--1--1--1--1--|--4--4--4--4--4--4--4--|--0--0--0--0--0--0--0--|
--1--1--1--1--1--1--1--|--4--4--4--4--4--4--4--|--0--0--0--0--0--0--0--|


                        |--3--|  |--3--|  |--3--|   
   E  E  E  E  E  E     E  E  E  E  E  E  E  E  E   
---------------------|-----------------------------|
---------------------|-----------------------------|
---------------------|-----------------------------|
---------------------|-----------------------------|
---------------------|--5--5--6--5--5--6--5--5--6--|
--/8--9--8--9--8--9--|-----------------------------|


  PM PM PM PM    PM PM    PM PM       PM    PM PM PM    PM PM  
  |-3|  |-3|  |--3--|  |--3--|     |--3--|  |--3--|  |--3--|   
  E  S  S  E  E  E  E  E  E  E     E  E  E  E  E  E  E  E  E   
--------------------------------|-----------------------------|
--------------------------------|-----------------------------|
--------------------------------|-----------------------------|
--0--0--0--0--6--0--0--8--0--0--|--6--0--4--0--0--0--6--0--0--|
--------------------------------|-----------------------------|
--------------------------------|-----------------------------|


       |--3--|       |--3--|          |--3--|       |--3--|   
  Q    E  E  E  Q    E  E  E     Q    E  E  E  Q    E  E  E   
------------------------------|------------------------------|
------------------------------|------------------------------|
------------------------------|--4----4--4--4--4----4--4--4--|
--1----1--1--1--1----1--1--1--|--4----4--4--4--4----4--4--4--|
--1----1--1--1--1----1--1--1--|--2----2--2--2--2----2--2--2--|
--1----1--1--1--1----1--1--1--|------------------------------|


       |--3--|       |--3--|          |--3--|  |--3--|  |--3--|   
  Q    E  E  E  Q    E  E  E     Q    E  E  E  E  E  E  E  E  E   
------------------------------|----------------------------------|
------------------------------|----------------------------------|
------------------------------|--3----3--3--3--------------------|
--4----4--4--4--4----4--4--4--|--3----3--3--3--------------------|
--4----4--4--4--4----4--4--4--|--1----1--1--1--1--2--1-----------|
--4----4--4--4--4----4--4--4--|-------------------------6--4--3--|


       |--3--|       |--3--|          |--3--|       |--3--|   
  Q    E  E  E  Q    E  E  E     Q    E  E  E  Q    E  E  E   
------------------------------|------------------------------|
------------------------------|------------------------------|
------------------------------|--4----4--4--4--4----4--4--4--|
--1----1--1--1--1----1--1--1--|--4----4--4--4--4----4--4--4--|
--1----1--1--1--1----1--1--1--|--2----2--2--2--2----2--2--2--|
--1----1--1--1--1----1--1--1--|------------------------------|


       |--3--|       |--3--|          |--3--|       |--3--|   
  Q    E  E  E  Q    E  E  E     Q    E  E  E  Q    E  E  E   
------------------------------|------------------------------|
------------------------------|------------------------------|
------------------------------|------------------------------|
--4----4--4--4--4----4--4--4--|--0----0--0--0--3----3--3--3--|
--4----4--4--4--4----4--4--4--|--0----0--0--0--3----3--3--3--|
--4----4--4--4--4----4--4--4--|--0----0--0--0--3----3--3--3--|


  |--3--|  |--3--|  |--3--|  |--3--|     |--3--|  |--3--|  |--3--|  |--3--|   
  E  E  E  E  E  E  E  E  E  E  E  E     E  E  E  E  E  E  E  E  E  E  E  E   
--------------------------------------|--------------------------------------|
--------------------------------------|--------------------------------------|
--------------------------------------|--------------------------------------|
--------------------------------------|--------------------------------------|
--------------------------------------|--2--2--2--2--2--2--2--2--2--2--2--2--|
--1--1--1--1--1--1--1--1--1--1--4--4--|--------------------------------------|


  |--3--|  |--3--|  |--3--|  |--3--|     |--3--|  |--3--|  |--3--|  |--3--|   
  E  E  E  E  E  E  E  E  E  E  E  E     E  E  E  E  E  E  E  E  E  E  E  E   
--------------------------------------|--------------------------------------|
--------------------------------------|--------------------------------------|
--------------------------------------|--------------------------------------|
--------------------------------------|--------------------------------------|
--------------------------------------|--1--1--1--1--1--1--1--2--1-----------|
--4--4--4--4--4--4--4--4--4--4--4--4--|-----------------------------6--4--3--|


  |--3--|  |--3--|  |--3--|  |--3--|     |--3--|  |--3--|  |--3--|  |--3--|   
  E  E  E  E  E  E  E  E  E  E  E  E     E  E  E  E  E  E  E  E  E  E  E  E   
--------------------------------------|--------------------------------------|
--------------------------------------|--------------------------------------|
--------------------------------------|--------------------------------------|
--------------------------------------|--------------------------------------|
--------------------------------------|--2--2--2--2--2--2--2--2--2--2--2--2--|
--1--1--1--1--1--1--1--1--1--1--4--4--|--------------------------------------|


  |--3--|  |--3--|  |--3--|  |--3--|     |--3--|  |--3--|  |--3--|  |--3--|   
  E  E  E  E  E  E  E  E  E  E  E  E     E  E  E  E  E  E  E  E  E  E  E  E   
--------------------------------------|--------------------------------------|
--------------------------------------|--------------------------------------|
--------------------------------------|--------------------------------------|
--------------------------------------|--------------------------------------|
--------------------------------------|--------------------------------------|
--4--4--4--4--4--4--4--4--4--4--4--4--|--0--0--0--0--0--0--3--3--3--3--3--3--|


     PM PM PM PM PM       PM PM PM PM PM       PM PM PM PM PM  
  E  E  E  E  E  E     E  E  E  E  E  E     E  E  E  E  E  E   
--------------------|--------------------|--------------------|
--------------------|--------------------|--------------------|
--------------------|--------------------|--------------------|
--1--1--1--1--1--1--|--4--4--4--4--4--4--|--0--0--0--0--0--0--|
--1--1--1--1--1--1--|--4--4--4--4--4--4--|--0--0--0--0--0--0--|
--1--1--1--1--1--1--|--4--4--4--4--4--4--|--0--0--0--0--0--0--|


                          PM PM PM PM PM       PM PM PM PM PM  
  E  E  E  E  E  E     E  E  E  E  E  E     E  E  E  E  E  E   
--------------------|--------------------|--------------------|
--------------------|--------------------|--------------------|
--7--7--7--7--7--7--|--------------------|--------------------|
--x--x--x--x--x--x--|--1--1--1--1--1--1--|--4--4--4--4--4--4--|
--5--5--5--5--5--5--|--1--1--1--1--1--1--|--4--4--4--4--4--4--|
--------------------|--1--1--1--1--1--1--|--4--4--4--4--4--4--|


     PM PM PM PM PM                            PM PM PM PM PM  
  E  E  E  E  E  E     E  E  E  E  E  E     E  E  E  E  E  E   
--------------------|--------------------|--------------------|
--------------------|--------------------|--------------------|
--------------------|--7--7--7--7--7--7--|--------------------|
--0--0--0--0--0--0--|--x--x--x--x--x--x--|--1--1--1--1--1--1--|
--0--0--0--0--0--0--|--5--5--5--5--5--5--|--1--1--1--1--1--1--|
--0--0--0--0--0--0--|--------------------|--1--1--1--1--1--1--|


     PM PM PM PM PM       PM PM PM PM PM                                   
  E  E  E  E  E  E     E  E  E  E  E  E     E  E  E  E  E  E               
--------------------|--------------------|--------------------|-----|-----|
--------------------|--------------------|--------------------|-----|-----|
--------------------|--------------------|--7--7--7--7--7--7--|-----|-----|
--4--4--4--4--4--4--|--0--0--0--0--0--0--|--x--x--x--x--x--x--|-----|-----|
--4--4--4--4--4--4--|--0--0--0--0--0--0--|--5--5--5--5--5--5--|-----|-----|
--4--4--4--4--4--4--|--0--0--0--0--0--0--|--------------------|-----|-----|


-----|-----|-----|-----||
-----|-----|-----|-----||
-----|-----|-----|-----||
-----|-----|-----|-----||
-----|-----|-----|-----||
-----|-----|-----|-----||


Guitar 2

       E  E  E  E  E  E      E   E   E   E   E   E      E   E   E   E   E   E   
D#||---------------------|--------------------------|--------------------------|
A#||------7-----7-----7--|------11------11------11--|------12------12------12--|
F#||--/8-----8-----8-----|--11------11------11------|--13------13------13------|
C#||---------------------|--------------------------|--------------------------|
G#||---------------------|--------------------------|--------------------------|
C#||---------------------|--------------------------|--------------------------|


   E  E   E  E   E  E      E   E   E   E   E   E     E  E  E  E  E  E   
-----------------------|--------------------------|--------------------|
------9------9------9--|------11------11------11--|-----7-----7-----7--|
--10-----10-----10-----|--11------11------11------|--8-----8-----8-----|
-----------------------|--------------------------|--------------------|
-----------------------|--------------------------|--------------------|
-----------------------|--------------------------|--------------------|


   E  E   E  E   E  E     E  E  E  E  E  E      E  E  E  E  E  E   
-----------------------|--------------------|---------------------|
------9------9------9--|-----6-----6--4--6--|------7-----7-----7--|
--10-----10-----10-----|--7-----7-----------|--/8-----8-----8-----|
-----------------------|--------------------|---------------------|
-----------------------|--------------------|---------------------|
-----------------------|--------------------|---------------------|


   E   E   E   E   E   E      E   E   E   E   E   E      E  E   E  E   E  E   
--------------------------|--------------------------|-----------------------|
------11------11------11--|------12------12------12--|------9------9------9--|
--11------11------11------|--13------13------13------|--10-----10-----10-----|
--------------------------|--------------------------|-----------------------|
--------------------------|--------------------------|-----------------------|
--------------------------|--------------------------|-----------------------|


   E   E   E   E   E   E     E  E  E  E  E  E      E  E   E  E   E  E   
--------------------------|--------------------|-----------------------|
------11------11------11--|-----7-----7-----7--|------9------9------9--|
--11------11------11------|--8-----8-----8-----|--10-----10-----10-----|
--------------------------|--------------------|-----------------------|
--------------------------|--------------------|-----------------------|
--------------------------|--------------------|-----------------------|


  E  E  E  E  E  E     Q    Q    Q       Q    Q    Q       Q    Q    Q     
--------------------|-----------------|-----------------|-----------------|
-----6-----6--4--6--|--7----4---------|-----------------|-----------------|
--7-----7-----------|------------4----|-----------------|-----------------|
--------------------|-----------------|--4----1---------|-------1----4----|
--------------------|-----------------|------------2----|--1--------------|
--------------------|-----------------|-----------------|-----------------|


  Q    Q    Q        E  E  E  E  E  E      E   E   E   E   E   E   
-----------------|---------------------|--------------------------|
-------3----6----|------7-----7-----7--|------11------11------11--|
--3--------------|--/8-----8-----8-----|--11------11------11------|
-----------------|---------------------|--------------------------|
-----------------|---------------------|--------------------------|
-----------------|---------------------|--------------------------|


   E   E   E   E   E   E      E  E   E  E   E  E      E   E   E   E   E   E   
--------------------------|-----------------------|--------------------------|
------12------12------12--|------9------9------9--|------11------11------11--|
--13------13------13------|--10-----10-----10-----|--11------11------11------|
--------------------------|-----------------------|--------------------------|
--------------------------|-----------------------|--------------------------|
--------------------------|-----------------------|--------------------------|


  E  E  E  E  E  E      E  E   E  E   E  E     E  E  E  E  E  E   
--------------------|-----------------------|--------------------|
-----7-----7-----7--|------9------9------9--|-----6-----6--6--4--|
--8-----8-----8-----|--10-----10-----10-----|--7-----7-----------|
--------------------|-----------------------|--------------------|
--------------------|-----------------------|--------------------|
--------------------|-----------------------|--------------------|


   E  E  E  E  E  E      E   E   E   E   E   E      E   E   E   E   E   E   
---------------------|--------------------------|--------------------------|
------7-----7-----7--|------11------11------11--|------12------12------12--|
--/8-----8-----8-----|--11------11------11------|--13------13------13------|
---------------------|--------------------------|--------------------------|
---------------------|--------------------------|--------------------------|
---------------------|--------------------------|--------------------------|


   E  E   E  E   E  E      E   E   E   E   E   E     E  E  E  E  E  E   
-----------------------|--------------------------|--------------------|
------9------9------9--|------11------11------11--|-----7-----7-----7--|
--10-----10-----10-----|--11------11------11------|--8-----8-----8-----|
-----------------------|--------------------------|--------------------|
-----------------------|--------------------------|--------------------|
-----------------------|--------------------------|--------------------|


   E  E   E  E   E  E     E  E  E  E  E  E     Q    Q    Q     
-----------------------|--------------------|-----------------|
------9------9------9--|-----6-----6--4--6--|--7----4---------|
--10-----10-----10-----|--7-----7-----------|------------4----|
-----------------------|--------------------|-----------------|
-----------------------|--------------------|-----------------|
-----------------------|--------------------|-----------------|


  Q    Q    Q       Q    Q    Q       Q    Q    Q       H        Q      Q      
-----------------|-----------------|-----------------|------------------------|
-----------------|-----------------|-------3----6----|------------------------|
-----------------|-----------------|--3--------------|------------------------|
--4----1---------|-------1----4----|-----------------|--1--------L----/13\----|
------------2----|--1--------------|-----------------|--1--------L----/13\----|
-----------------|-----------------|-----------------|--1--------L----/13\----|


  |--3--|  |--3--|  |--3--|  |--3--|     |--3--|  |--3--|  |--3--|  |--3--|   
  E  E  E  E  E  E  E  E  E  E  E  E     E  E  E  E  E  E  E  E  E  E  E  E   
--------------------------------------|--------------------------------------|
--------------------------------------|--------------------------------------|
--------------------------------------|--------------------------------------|
-----------1--------------------------|--------------------------------------|
--------1-----1-----------1--2--1-----|--------0--1--0-----------0--1--0-----|
--1--4-----------4--1--4-----------4--|--0--3-----------3--0--3-----------3--|


  |--3--|  |--3--|  |--3--|  |--3--|     |--3--|  |--3--|  |--3--|  |--3--|   
  E  E  E  E  E  E  E  E  E  E  E  E     E  E  E  E  E  E  E  E  E  E  E  E   
--------------------------------------|--------------------------------------|
--------------------------------------|--------------------------------------|
--------------------------------------|--------------------------------------|
-----------1--------------------------|--------------------------------------|
--------1-----1-----------1--2--1-----|--------0--1--0-----------0--1--0-----|
--1--4-----------4--1--4-----------4--|--0--3-----------3--0--3-----------3--|


       PM PM PM                   PM PM PM      PM PM PM  
       |--3--|                    |--3--|       |--3--|   
  Q    E  E  E  Q    Q       Q    E  E  E  Q    E  E  E   
--------------------------|------------------------------|
--------------------------|------------------------------|
--------------------------|------------------------------|
--1----1--1--1--1----4----|--0----0--0--0--0----0--0--0--|
--1----1--1--1--1----4----|--0----0--0--0--0----0--0--0--|
--1----1--1--1--1----4----|--0----0--0--0--0----0--0--0--|


       PM PM PM                                            
       |--3--|                          |--3--|  |--3--|   
  Q    E  E  E  Q     Q       Q    Q    E  E  E  E  E  E   
---------------------------|------------------------------|
---------------------------|------------------------------|
---------------------------|------------------------------|
--1----1--1--1--1----------|------------------1-----------|
--1----1--1--1--1----/6----|--5----1----1--2-----2--1-----|
--1----1--1--1--1----------|---------------------------3--|


       PM PM PM                   PM PM PM      PM PM PM  
       |--3--|                    |--3--|       |--3--|   
  Q    E  E  E  Q    Q       Q    E  E  E  Q    E  E  E   
--------------------------|------------------------------|
--------------------------|------------------------------|
--------------------------|------------------------------|
--1----1--1--1--1----4----|--0----0--0--0--0----0--0--0--|
--1----1--1--1--1----4----|--0----0--0--0--0----0--0--0--|
--1----1--1--1--1----4----|--0----0--0--0--0----0--0--0--|


     PM PM    PM PM    PM    PM            PM PM    PM PM    PM    PM       
  |--3--|  |--3--|  |--3--|  |-3|       |--3--|  |--3--|  |--3--|  |-3|     
  E  E  E  E  E  E  E  E  E  E  Q       E  E  E  E  E  E  E  E  E  E  Q     
-------------------------------------|-------------------------------------|
-------------------------------------|-------------------------------------|
--4----------------------------------|--3----------------------------------|
--4--------4--------6-----4-----3----|--3--------3--------4-----3----------|
--2--2--2-----2--2-----2-----2-------|--1--1--1-----1--1-----1-----1--5----|
-------------------------------------|-------------------------------------|


       PM PM PM                   PM PM PM      PM PM PM  
       |--3--|                    |--3--|       |--3--|   
  Q    E  E  E  Q    Q       Q    E  E  E  Q    E  E  E   
--------------------------|------------------------------|
--------------------------|------------------------------|
--------------------------|------------------------------|
--1----1--1--1--1----4----|--0----0--0--0--0----0--0--0--|
--1----1--1--1--1----4----|--0----0--0--0--0----0--0--0--|
--1----1--1--1--1----4----|--0----0--0--0--0----0--0--0--|


       PM PM PM                                            
       |--3--|                          |--3--|  |--3--|   
  Q    E  E  E  Q     Q       Q    Q    E  E  E  E  E  E   
---------------------------|------------------------------|
---------------------------|------------------------------|
---------------------------|------------------------------|
--1----1--1--1--1----------|------------------1-----------|
--1----1--1--1--1----/6----|--5----1----1--2-----2--1-----|
--1----1--1--1--1----------|---------------------------3--|


       PM PM PM                   PM PM PM      PM PM PM  
       |--3--|                    |--3--|       |--3--|   
  Q    E  E  E  Q    Q       Q    E  E  E  Q    E  E  E   
--------------------------|------------------------------|
--------------------------|------------------------------|
--------------------------|------------------------------|
--1----1--1--1--1----4----|--0----0--0--0--0----0--0--0--|
--1----1--1--1--1----4----|--0----0--0--0--0----0--0--0--|
--1----1--1--1--1----4----|--0----0--0--0--0----0--0--0--|


     PM PM    PM PM    PM    PM            PM PM    PM PM                    
  |--3--|  |--3--|  |--3--|  |-3|       |--3--|  |--3--|  |--3--|  |--3--|   
  E  E  E  E  E  E  E  E  E  E  Q       E  E  E  E  E  E  E  E  E  E  E  E   
-------------------------------------|--------------------------------------|
-------------------------------------|--------------------------------------|
--4----------------------------------|--3-----------------------------------|
--4--------4--------6-----4-----3----|--3--------3--------------------------|
--2--2--2-----2--2-----2-----2-------|--1--1--1-----1--1--1--2--1-----------|
-------------------------------------|-----------------------------6--4--3--|


  |--3--|  |--3--|  |--3--|  |--3--|     |--3--|  |--3--|  |--3--|  |--3--|   
  E  E  E  E  E  E  E  E  E  E  E  E     E  E  E  E  E  E  E  E  E  E  E  E   
--------------------------------------|--------------------------------------|
--------------------------------------|--------------------------------------|
--------------------------------------|--------------------------------------|
-----------1--------------------------|--------------------------------------|
--------1-----1-----------1--2--1-----|--------0--1--0-----------0--1--0-----|
--1--4-----------4--1--4-----------4--|--0--3-----------3--0--3-----------3--|


  |--3--|  |--3--|  |--3--|  |--3--|   
  E  E  E  E  E  E  E  E  E  E  E  E   
--------------------------------------|
--------------------------------------|
--------------------------------------|
-----------1--------------------------|
--------1-----1-----------1--2--1-----|
--1--4-----------4--1--4-----------4--|


                    PM PM PM PM PM PM PM                            
  |--3--|  |--3--|  |-3|  |-3|  |--3--|                             
  E  E  E  E  E  E  E  S  S  E  E  E  E     Q     Q     Q     Q     
-----------------------------------------|-------14----11----------|
-----------------------------------------|-------------------11----|
-----------------------------------------|-------------------------|
-----------------------------------------|-------------------------|
--------0--1--0--------------------------|-------------------------|
--0--3-----------3--0--0--0--0--0--0--0--|-------------------------|


   Q    E   S  S  H           Q     Q     Q     Q        Q    E   H         E   
---------------------------|-------14----13----11----|--13----L--13b--------L--|
--14----L------------------|-------------------------|-------------------------|
-----------10-11-13--------|-------------------------|-------------------------|
---------------------------|-------------------------|-------------------------|
---------------------------|-------------------------|-------------------------|
---------------------------|-------------------------|-------------------------|


  Q     Q     Q     Q        Q    E   S  S  H         
-------14----11----------|---------------------------|
-------------------11----|--14----L------------------|
-------------------------|-----------10-11-13--------|
-------------------------|---------------------------|
-------------------------|---------------------------|
-------------------------|---------------------------|


                |---3---|   |---3---|                                   
   Q    E   E   E   E   E   E   E   E      E   E   E   E   Q    E  E    
---------------------------------------|-------------------------------|
-----------------------12--14--12------|-------------------------------|
--11----L\-----13--15--------------15--|--13--11--10--11---------------|
---------------------------------------|------------------12----L--L\--|
---------------------------------------|-------------------------------|
---------------------------------------|-------------------------------|


   |---3---|   |---3---|   |---3---|   |---3---|   
   E   E   E   E   E   E   E   E   E   E   E   E   
--16----------------------13------13--14--13------|
------14--------------14------14--------------14--|
----------15--13--15------------------------------|
--------------------------------------------------|
--------------------------------------------------|
--------------------------------------------------|


   |---3---|   |---3---|   |---3---|   |---3---|   
   E   E   E   E   E   E   E   E   E   E   E   E   
--16----------------------13------13--16--13------|
------14--------------14------14--------------14--|
----------15--13--15------------------------------|
--------------------------------------------------|
--------------------------------------------------|
--------------------------------------------------|


   |---3---|   |---3---|   |---3---|   |---3---|   
   E   E   E   E   E   E   E   E   E   E   E   E   
------14--13----------13--16--13------------------|
--14----------14--14--------------14------14------|
--------------------------------------15------15--|
--------------------------------------------------|
--------------------------------------------------|
--------------------------------------------------|


   |---3---|   |---3---|                                         
   E   E   E   E   E   E   Q    Q        Q     Q     Q     Q     
--------------------------------------|-------14----11----------|
--12--14--12--14--12------------------|-------------------11----|
----------------------13--11----L\----|-------------------------|
--------------------------------------|-------------------------|
--------------------------------------|-------------------------|
--------------------------------------|-------------------------|


                               |---3---|   |---3---|   |---3---|   |---3---|   
   Q    E   S  S  H            E   E   E   E   E   E   E   E   E   E   E   E   
---------------------------|------------------11------------------------------|
--14----L------------------|--12--11--12--14------14--12--11--12--------------|
-----------10-11-13--------|--------------------------------------10--11--13--|
---------------------------|--------------------------------------------------|
---------------------------|--------------------------------------------------|
---------------------------|--------------------------------------------------|


                                                    PM PM PM       PM PM PM  
   |---3---|  |---3--|  |--3--|   |--3--|           |--3--|        |--3--|   
   E   E   E  E  E   E  E  E  E   E  E  E     E  E  E  E  E  E  E  E  E  E   
-------------------------------------------|--------------------------------|
-------------------------------------------|--------------------------------|
--11--10-----------------------------------|--------------------------------|
----------11--9--8-------------------------|--1-----1--1--1--1-----1--1--1--|
--------------------11--9--8--9--11--9--8--|--1-----1--1--1--1-----1--1--1--|
-------------------------------------------|--1-----1--1--1--1-----1--1--1--|


        PM PM PM                            PM PM PM       PM PM PM  
        |--3--|  |--3--|  |--3--|           |--3--|        |--3--|   
  E  E  E  E  E  E  E  E  E  E  E     E  E  E  E  E  E  E  E  E  E   
-----------------------------------|--------------------------------|
-----------------------------------|--------------------------------|
-----------------------------------|--------------------------------|
--1-----1--1--1--------------------|--1-----1--1--1--1-----1--1--1--|
--1-----1--1--1--1--2--1-----------|--1-----1--1--1--1-----1--1--1--|
--1-----1--1--1-----------6--4--3--|--1-----1--1--1--1-----1--1--1--|


        PM PM PM PM PM PM PM PM PM PM                                      
        |--3--|  |-3|  |-3|  |--3--|     ---   ---   ---   ---   ---   --- 
  E  E  E  E  E  E  S  S  E  E  E  E                                       
--------------------------------------|-----|-----|-----|-----|-----|-----|
--------------------------------------|-----|-----|-----|-----|-----|-----|
--------------------------------------|-----|-----|-----|-----|-----|-----|
--1-----1--1--1--1--0--0--0--0--0--0--|-----|-----|-----|-----|-----|-----|
--1-----1--1--1--1--0--0--0--0--0--0--|-----|-----|-----|-----|-----|-----|
--1-----1--1--1--1--0--0--0--0--0--0--|-----|-----|-----|-----|-----|-----|


                   PM PM PM                   PM PM PM      PM PM PM  
  ---   ---        |--3--|                    |--3--|       |--3--|   
              Q    E  E  E  Q    Q       Q    E  E  E  Q    E  E  E   
-----|-----|--------------------------|------------------------------|
-----|-----|--------------------------|------------------------------|
-----|-----|--------------------------|------------------------------|
-----|-----|--1----1--1--1--1----4----|--0----0--0--0--0----0--0--0--|
-----|-----|--1----1--1--1--1----4----|--0----0--0--0--0----0--0--0--|
-----|-----|--1----1--1--1--1----4----|--0----0--0--0--0----0--0--0--|


       PM PM PM                                            
       |--3--|                          |--3--|  |--3--|   
  Q    E  E  E  Q     Q       Q    Q    E  E  E  E  E  E   
---------------------------|------------------------------|
---------------------------|------------------------------|
---------------------------|------------------------------|
--1----1--1--1--1----------|------------------1-----------|
--1----1--1--1--1----/6----|--5----1----1--2-----2--1-----|
--1----1--1--1--1----------|---------------------------3--|


       PM PM PM                   PM PM PM      PM PM PM  
       |--3--|                    |--3--|       |--3--|   
  Q    E  E  E  Q    Q       Q    E  E  E  Q    E  E  E   
--------------------------|------------------------------|
--------------------------|------------------------------|
--------------------------|------------------------------|
--1----1--1--1--1----4----|--0----0--0--0--0----0--0--0--|
--1----1--1--1--1----4----|--0----0--0--0--0----0--0--0--|
--1----1--1--1--1----4----|--0----0--0--0--0----0--0--0--|


     PM PM    PM PM    PM    PM            PM PM    PM PM                    
  |--3--|  |--3--|  |--3--|  |-3|       |--3--|  |--3--|  |--3--|  |--3--|   
  E  E  E  E  E  E  E  E  E  E  Q       E  E  E  E  E  E  E  E  E  E  E  E   
-------------------------------------|--------------------------------------|
-------------------------------------|--------------------------------------|
--4----------------------------------|--3-----------------------------------|
--4--------4--------6-----4-----3----|--3--------3--------------------------|
--2--2--2-----2--2-----2-----2-------|--1--1--1-----1--1--1--2--1-----------|
-------------------------------------|-----------------------------6--4--3--|


  |--3--|  |--3--|  |--3--|  |--3--|     |--3--|  |--3--|  |--3--|  |--3--|   
  E  E  E  E  E  E  E  E  E  E  E  E     E  E  E  E  E  E  E  E  E  E  E  E   
--------------------------------------|--------------------------------------|
--------------------------------------|--------------------------------------|
--------------------------------------|--------------------------------------|
-----------1--------------------------|--------------------------------------|
--------1-----1-----------1--2--1-----|--------0--1--0-----------0--1--0-----|
--1--4-----------4--1--4-----------4--|--0--3-----------3--0--3-----------3--|


  |--3--|  |--3--|  |--3--|  |--3--|   
  E  E  E  E  E  E  E  E  E  E  E  E   
--------------------------------------|
--------------------------------------|
--------------------------------------|
-----------1--------------------------|
--------1-----1-----------1--2--1-----|
--1--4-----------4--1--4-----------4--|


                    PM PM PM PM PM PM PM                            
  |--3--|  |--3--|  |-3|  |-3|  |--3--|                             
  E  E  E  E  E  E  E  S  S  E  E  E  E     Q     Q     Q     Q     
-----------------------------------------|-------14----11----------|
-----------------------------------------|-------------------11----|
-----------------------------------------|-------------------------|
-----------------------------------------|-------------------------|
--------0--1--0--------------------------|-------------------------|
--0--3-----------3--0--0--0--0--0--0--0--|-------------------------|


   Q    E   S  S  H           Q     Q     Q     Q        Q    E   H         E   
---------------------------|-------14----13----11----|--13----L--13b--------L--|
--14----L------------------|-------------------------|-------------------------|
-----------10-11-13--------|-------------------------|-------------------------|
---------------------------|-------------------------|-------------------------|
---------------------------|-------------------------|-------------------------|
---------------------------|-------------------------|-------------------------|


  Q     Q     Q     Q        Q    E   S  S  H         
-------14----11----------|---------------------------|
-------------------11----|--14----L------------------|
-------------------------|-----------10-11-13--------|
-------------------------|---------------------------|
-------------------------|---------------------------|
-------------------------|---------------------------|


                |---3---|   |---3---|                                   
   Q    E   E   E   E   E   E   E   E      E   E   E   E   Q    E  E    
---------------------------------------|-------------------------------|
-----------------------12--14--12------|-------------------------------|
--11----L\-----13--15--------------15--|--13--11--10--11---------------|
---------------------------------------|------------------12----L--L\--|
---------------------------------------|-------------------------------|
---------------------------------------|-------------------------------|


   |---3---|   |---3---|   |---3---|   |---3---|   
   E   E   E   E   E   E   E   E   E   E   E   E   
--16----------------------13------13--14--13------|
------14--------------14------14--------------14--|
----------15--13--15------------------------------|
--------------------------------------------------|
--------------------------------------------------|
--------------------------------------------------|


   |---3---|   |---3---|   |---3---|   |---3---|   
   E   E   E   E   E   E   E   E   E   E   E   E   
--16----------------------13------13--16--13------|
------14--------------14------14--------------14--|
----------15--13--15------------------------------|
--------------------------------------------------|
--------------------------------------------------|
--------------------------------------------------|


   |---3---|   |---3---|   |---3---|   |---3---|   
   E   E   E   E   E   E   E   E   E   E   E   E   
------14--13----------13--16--13------------------|
--14----------14--14--------------14------14------|
--------------------------------------15------15--|
--------------------------------------------------|
--------------------------------------------------|
--------------------------------------------------|


   |---3---|   |---3---|                                         
   E   E   E   E   E   E   Q    Q        Q     Q     Q     Q     
--------------------------------------|-------14----11----------|
--12--14--12--14--12------------------|-------------------11----|
----------------------13--11----L\----|-------------------------|
--------------------------------------|-------------------------|
--------------------------------------|-------------------------|
--------------------------------------|-------------------------|


                               |---3---|   |---3---|   |---3---|   |---3---|   
   Q    E   S  S  H            E   E   E   E   E   E   E   E   E   E   E   E   
---------------------------|------------------11------------------------------|
--14----L------------------|--12--11--12--14------14--12--11--12--------------|
-----------10-11-13--------|--------------------------------------10--11--13--|
---------------------------|--------------------------------------------------|
---------------------------|--------------------------------------------------|
---------------------------|--------------------------------------------------|


                                                    PM    PM    PM     
   |---3---|  |---3--|  |--3--|   |--3--|                              
   E   E   E  E  E   E  E  E  E   E  E  E     E  E  E  E  E  E  E  E   
-------------------------------------------|--------------------------|
-------------------------------------------|--------------------------|
--11--10-----------------------------------|-----------------3-----8--|
----------11--9--8-------------------------|--1--1--1--4--1--3--1--8--|
--------------------11--9--8--9--11--9--8--|--1--1--1--4--1--1--1--6--|
-------------------------------------------|--1--1--1--4--1-----1-----|


  PM PM PM PM PM PM PM PM PM PM PM PM PM PM PM PM          PM    PM    PM     
  |--3--|     |--3--|     |--3--|     |--3--|                                 
  S  S  S  E  S  S  S  E  S  S  S  E  S  S  S  E     E  E  E  E  E  E  E  E   
--------------------------------------------------|--------------------------|
--------------------------------------------------|--------------------------|
--------------------------------------------------|-----------------3-----8--|
--------------------------------------------------|--1--1--1--4--1--3--1--8--|
--8--8--8--8--8--8--8--8--8--8--8--8--8--8--8--8--|--1--1--1--4--1--1--1--6--|
--------------------------------------------------|--1--1--1--4--1-----1-----|


  PM PM PM PM PM PM PM PM PM PM PM PM PM PM PM PM    PM    PM    PM    PM     
  |--3--|     |--3--|     |--3--|     |--3--|                                 
  S  S  S  E  S  S  S  E  S  S  S  E  S  S  S  E     E  E  E  E  E  E  E  E   
--------------------------------------------------|--------------------------|
--------------------------------------------------|--------------------------|
--------------------------------------------------|-----------------3-----8--|
--4--4--4--4--6--6--6--6--9--9--9--9--8--8--8--8--|--1--1--1--4--1--3--1--8--|
--------------------------------------------------|--1--1--1--4--1--1--1--6--|
--------------------------------------------------|--1--1--1--4--1-----1-----|


  PM PM PM PM PM PM PM PM PM PM PM PM PM PM PM PM  
  |--3--|     |--3--|     |--3--|     |--3--|      
  S  S  S  E  S  S  S  E  S  S  S  E  S  S  S  E   
--------------------------------------------------|
--------------------------------------------------|
--------------------------------------------------|
--------------------------------------------------|
--5--5--5--5--5--5--5--5--5--5--5--5--5--5--5--5--|
--------------------------------------------------|


          PM PM PM                                     
          |--3--|                                      
  Q    E  S  S  S  E  S E  S E     H        Q    Q     
--------------------------------|---------------------|
--------------------------------|---------------------|
--4----L--4--4--4--4----4----4--|--3------------------|
--4----L--4--4--4--4----4----4--|--3--------4----3----|
--2----L--2--2--2--2----2----2--|--1--------4----3----|
--------------------------------|-----------4----3----|


        PM    PM    PM       PM PM PM PM PM PM PM PM PM PM PM PM PM PM PM PM  
                             |--3--|     |--3--|     |--3--|     |--3--|      
  E  E  E  E  E  E  E  E     S  S  S  E  S  S  S  E  S  S  S  E  S  S  S  E   
--------------------------|--------------------------------------------------|
--------------------------|--------------------------------------------------|
-----------------3-----8--|--------------------------------------------------|
--1--1--1--4--1--3--1--8--|--------------------------------------------------|
--1--1--1--4--1--1--1--6--|--8--8--8--8--8--8--8--8--8--8--8--8--8--8--8--8--|
--1--1--1--4--1-----1-----|--------------------------------------------------|


        PM    PM    PM       PM PM PM PM PM PM PM PM PM PM PM PM PM PM PM PM  
                             |--3--|     |--3--|     |--3--|     |--3--|      
  E  E  E  E  E  E  E  E     S  S  S  E  S  S  S  E  S  S  S  E  S  S  S  E   
--------------------------|--------------------------------------------------|
--------------------------|--------------------------------------------------|
-----------------3-----8--|--------------------------------------------------|
--1--1--1--4--1--3--1--8--|--4--4--4--4--6--6--6--6--9--9--9--9--8--8--8--8--|
--1--1--1--4--1--1--1--6--|--------------------------------------------------|
--1--1--1--4--1-----1-----|--------------------------------------------------|


  PM    PM    PM    PM       PM PM PM PM PM PM PM PM PM PM PM PM PM PM PM PM  
                             |--3--|     |--3--|     |--3--|     |--3--|      
  E  E  E  E  E  E  E  E     S  S  S  E  S  S  S  E  S  S  S  E  S  S  S  E   
--------------------------|--------------------------------------------------|
--------------------------|--------------------------------------------------|
-----------------3-----8--|--------------------------------------------------|
--1--1--1--4--1--3--1--8--|--------------------------------------------------|
--1--1--1--4--1--1--1--6--|--5--5--5--5--5--5--5--5--5--5--5--5--5--5--5--5--|
--1--1--1--4--1-----1-----|--------------------------------------------------|


          PM PM PM                                                           
          |--3--|                                                            
  Q    E  S  S  S  E  S E  S E     H        Q    Q        E  E  E  E  E  E   
--------------------------------|---------------------|---------------------|
--------------------------------|---------------------|------7-----7-----7--|
--4----L--4--4--4--4----4----4--|--3------------------|--/8-----8-----8-----|
--4----L--4--4--4--4----4----4--|--3--------4----3----|---------------------|
--2----L--2--2--2--2----2----2--|--1--------4----3----|---------------------|
--------------------------------|-----------4----3----|---------------------|


   E   E   E   E   E   E      E   E   E   E   E   E      E  E   E  E   E  E   
--------------------------|--------------------------|-----------------------|
------11------11------11--|------12------12------12--|------9------9------9--|
--11------11------11------|--13------13------13------|--10-----10-----10-----|
--------------------------|--------------------------|-----------------------|
--------------------------|--------------------------|-----------------------|
--------------------------|--------------------------|-----------------------|


   E   E   E   E   E   E     E  E  E  E  E  E      E  E   E  E   E  E   
--------------------------|--------------------|-----------------------|
------11------11------11--|-----7-----7-----7--|------9------9------9--|
--11------11------11------|--8-----8-----8-----|--10-----10-----10-----|
--------------------------|--------------------|-----------------------|
--------------------------|--------------------|-----------------------|
--------------------------|--------------------|-----------------------|


  E  E  E  E  E  E      E  E  E  E  E  E      E   E   E   E   E   E   
--------------------|---------------------|--------------------------|
-----6-----6--4--6--|------7-----7-----7--|------11------11------11--|
--7-----7-----------|--/8-----8-----8-----|--11------11------11------|
--------------------|---------------------|--------------------------|
--------------------|---------------------|--------------------------|
--------------------|---------------------|--------------------------|


   E   E   E   E   E   E      E  E   E  E   E  E      E   E   E   E   E   E   
--------------------------|-----------------------|--------------------------|
------12------12------12--|------9------9------9--|------11------11------11--|
--13------13------13------|--10-----10-----10-----|--11------11------11------|
--------------------------|-----------------------|--------------------------|
--------------------------|-----------------------|--------------------------|
--------------------------|-----------------------|--------------------------|


  E  E  E  E  E  E      E  E   E  E   E  E     E  E  E  E  E  E   
--------------------|-----------------------|--------------------|
-----7-----7-----7--|------9------9------9--|-----6-----6--4--6--|
--8-----8-----8-----|--10-----10-----10-----|--7-----7-----------|
--------------------|-----------------------|--------------------|
--------------------|-----------------------|--------------------|
--------------------|-----------------------|--------------------|


   E  E  E  E  E  E      E   E   E   E   E   E      E   E   E   E   E   E   
---------------------|--------------------------|--------------------------|
------7-----7-----7--|------11------11------11--|------12------12------12--|
--/8-----8-----8-----|--11------11------11------|--13------13------13------|
---------------------|--------------------------|--------------------------|
---------------------|--------------------------|--------------------------|
---------------------|--------------------------|--------------------------|


   E  E   E  E   E  E      E   E   E   E   E   E     E  E  E  E  E  E   
-----------------------|--------------------------|--------------------|
------9------9------9--|------11------11------11--|-----7-----7-----7--|
--10-----10-----10-----|--11------11------11------|--8-----8-----8-----|
-----------------------|--------------------------|--------------------|
-----------------------|--------------------------|--------------------|
-----------------------|--------------------------|--------------------|


   E  E   E  E   E  E     E  E  E  E  E  E     Q    Q    Q     
-----------------------|--------------------|-----------------|
------9------9------9--|-----6-----6--4--6--|--7----4---------|
--10-----10-----10-----|--7-----7-----------|------------4----|
-----------------------|--------------------|-----------------|
-----------------------|--------------------|-----------------|
-----------------------|--------------------|-----------------|


  Q    Q    Q       Q    Q    Q       Q    Q    Q        H        Q     
-----------------|-----------------|-----------------|--11--------L----|
-----------------|-----------------|-------3----6----|-----------------|
-----------------|-----------------|--3--------------|-----------------|
--4----1---------|-------1----4----|-----------------|-----------------|
------------2----|--1--------------|-----------------|-----------------|
-----------------|-----------------|-----------------|-----------------|


    PH                 PH                                                 
    H        Q         H        Q        H        Q        H        Q     
------------------|------------------|-----------------|--11--------L----|
--<>7--------L----|--<>6--------L----|--11--------L----|-----------------|
------------------|------------------|-----------------|-----------------|
------------------|------------------|-----------------|-----------------|
------------------|------------------|-----------------|-----------------|
------------------|------------------|-----------------|-----------------|


    PH                 PH                                                  
    H        Q         H        Q        H        Q         H        Q     
------------------|------------------|-----------------|--/14--------L----|
--<>7--------L----|--<>6--------L----|--11--------L----|------------------|
------------------|------------------|-----------------|------------------|
------------------|------------------|-----------------|------------------|
------------------|------------------|-----------------|------------------|
------------------|------------------|-----------------|------------------|


    H         Q         H        Q         H        Q         H        Q     
--/18---------L----|--/16--------L----|--/10--------L----|--/14--------L----|
-------------------|------------------|------------------|------------------|
-------------------|------------------|------------------|------------------|
-------------------|------------------|------------------|------------------|
-------------------|------------------|------------------|------------------|
-------------------|------------------|------------------|------------------|


    H         Q         H        Q         H        Q         H        Q     
--/18---------L----|--/16--------L----|--/10--------L----|--/14--------L----|
-------------------|------------------|------------------|------------------|
-------------------|------------------|------------------|------------------|
-------------------|------------------|------------------|------------------|
-------------------|------------------|------------------|------------------|
-------------------|------------------|------------------|------------------|


               |--3--|  |--3--|  |--3--|  |--3--|  
   S  S  S  S  S  S  S  S  S  S  S  S  S  S  S  S  
--18-19-18-16-------------------------------------|
--------------19-18-16-19-18-16-------------------|
--------------------------------18-16-15-18-16-15-|
--------------------------------------------------|
--------------------------------------------------|
--------------------------------------------------|


   |--3--|  |--3--|  |--3--|  |--3--|  |--3--|  |--3--|                       
   S  S  S  S  S  S  S  S  S  S  S  S  S  S  S  S  S  S     W                 
-----------------------------------------------------16-|--18----------------|
--------------------------------------------16-18-19----|--------------------|
-----------------------------------15-16-18-------------|--------------------|
--18-16-15----------------15-16-18----------------------|--------------------|
-----------18-16-15-16-18-------------------------------|--------------------|
--------------------------------------------------------|--------------------|


   Q    E   S  S  H           Q     Q     Q     Q        Q    E   H         E   
---------------------------|-------14----13----11----|--13----L--13b--------L--|
--14----L------------------|-------------------------|-------------------------|
-----------10-11-13--------|-------------------------|-------------------------|
---------------------------|-------------------------|-------------------------|
---------------------------|-------------------------|-------------------------|
---------------------------|-------------------------|-------------------------|


  Q     Q     Q     Q        Q    E   S  S  H         
-------14----11----------|---------------------------|
-------------------11----|--14----L------------------|
-------------------------|-----------10-11-13--------|
-------------------------|---------------------------|
-------------------------|---------------------------|
-------------------------|---------------------------|


                |---3---|   |---3---|                                   
   Q    E   E   E   E   E   E   E   E      E   E   E   E   Q    E  E    
---------------------------------------|-------------------------------|
-----------------------12--14--12------|-------------------------------|
--11----L\-----13--15--------------15--|--13--11--10--11---------------|
---------------------------------------|------------------12----L--L\--|
---------------------------------------|-------------------------------|
---------------------------------------|-------------------------------|


   |---3---|   |---3---|   |---3---|   |---3---|   
   E   E   E   E   E   E   E   E   E   E   E   E   
--16----------------------13------13--14--13------|
------14--------------14------14--------------14--|
----------15--13--15------------------------------|
--------------------------------------------------|
--------------------------------------------------|
--------------------------------------------------|


   |---3---|   |---3---|   |---3---|   |---3---|   
   E   E   E   E   E   E   E   E   E   E   E   E   
--16----------------------13------13--16--13------|
------14--------------14------14--------------14--|
----------15--13--15------------------------------|
--------------------------------------------------|
--------------------------------------------------|
--------------------------------------------------|


   |---3---|   |---3---|   |---3---|   |---3---|   
   E   E   E   E   E   E   E   E   E   E   E   E   
------14--13----------13--16--13------------------|
--14----------14--14--------------14------14------|
--------------------------------------15------15--|
--------------------------------------------------|
--------------------------------------------------|
--------------------------------------------------|


   |---3---|   |---3---|                                         
   E   E   E   E   E   E   Q    Q        Q     Q     Q     Q     
--------------------------------------|-------14----11----------|
--12--14--12--14--12------------------|-------------------11----|
----------------------13--11----L\----|-------------------------|
--------------------------------------|-------------------------|
--------------------------------------|-------------------------|
--------------------------------------|-------------------------|


                               |---3---|   |---3---|   |---3---|   |---3---|   
   Q    E   S  S  H            E   E   E   E   E   E   E   E   E   E   E   E   
---------------------------|------------------11------------------------------|
--14----L------------------|--12--11--12--14------14--12--11--12--------------|
-----------10-11-13--------|--------------------------------------10--11--13--|
---------------------------|--------------------------------------------------|
---------------------------|--------------------------------------------------|
---------------------------|--------------------------------------------------|


                                                 PM PM PM PM PM  
   |---3---|  |---3--|  |--3--|   |--3--|                        
   E   E   E  E  E   E  E  E  E   E  E  E     E  E  E  E  E  E   
-------------------------------------------|--------------------|
-------------------------------------------|--------------------|
--11--10-----------------------------------|--------------------|
----------11--9--8-------------------------|--1--1--1--1--1--1--|
--------------------11--9--8--9--11--9--8--|--1--1--1--1--1--1--|
-------------------------------------------|--1--1--1--1--1--1--|


     PM PM PM PM PM       PM PM PM PM PM                       
  E  E  E  E  E  E     E  E  E  E  E  E     E  E  E  E  E  E   
--------------------|--------------------|--------------------|
--------------------|--------------------|--------------------|
--------------------|--------------------|--3--3--3--3--3--3--|
--4--4--4--4--4--4--|--0--0--0--0--0--0--|--x--x--x--x--x--x--|
--4--4--4--4--4--4--|--0--0--0--0--0--0--|--1--1--1--1--1--1--|
--4--4--4--4--4--4--|--0--0--0--0--0--0--|--------------------|


     PM PM PM PM PM       PM PM PM PM PM       PM PM PM PM PM  
  E  E  E  E  E  E     E  E  E  E  E  E     E  E  E  E  E  E   
--------------------|--------------------|--------------------|
--------------------|--------------------|--------------------|
--------------------|--------------------|--------------------|
--1--1--1--1--1--1--|--4--4--4--4--4--4--|--0--0--0--0--0--0--|
--1--1--1--1--1--1--|--4--4--4--4--4--4--|--0--0--0--0--0--0--|
--1--1--1--1--1--1--|--4--4--4--4--4--4--|--0--0--0--0--0--0--|


                          PM PM PM PM PM       PM PM PM PM PM  
  E  E  E  E  E  E     E  E  E  E  E  E     E  E  E  E  E  E   
--------------------|--------------------|--------------------|
--------------------|--------------------|--------------------|
--3--3--3--3--3--3--|--------------------|--------------------|
--x--x--x--x--x--x--|--1--1--1--1--1--1--|--4--4--4--4--4--4--|
--1--1--1--1--1--1--|--1--1--1--1--1--1--|--4--4--4--4--4--4--|
--------------------|--1--1--1--1--1--1--|--4--4--4--4--4--4--|


     PM PM PM PM PM                                                            
  E  E  E  E  E  E     E  E  E  E  E  E                                        
--------------------|--------------------|-----|-----|-----|-----|-----|-----||
--------------------|--------------------|-----|-----|-----|-----|-----|-----||
--------------------|--3--3--3--3--3--3--|-----|-----|-----|-----|-----|-----||
--0--0--0--0--0--0--|--x--x--x--x--x--x--|-----|-----|-----|-----|-----|-----||
--0--0--0--0--0--0--|--1--1--1--1--1--1--|-----|-----|-----|-----|-----|-----||
--0--0--0--0--0--0--|--------------------|-----|-----|-----|-----|-----|-----||


Guitar 3

Fades In at (05:00)

                                          E  E  E  E  E  E   
-------|-------|-------|-------|-------|--------------------|
-------|-------|-------|-------|-------|-----4-----4-----4--|
-------|-------|-------|-------|-------|--3-----3-----3-----|
-------|-------|-------|-------|-------|--------------------|
-------|-------|-------|-------|-------|--------------------|
-------|-------|-------|-------|-------|--------------------|


  E  E  E  E  E  E      E  E   E  E   E  E     E  E  E  E  E  E   
--------------------|-----------------------|--------------------|
-----7-----7-----7--|------9------9------9--|-----6-----6-----6--|
--8-----8-----8-----|--10-----10-----10-----|--7-----7-----7-----|
--------------------|-----------------------|--------------------|
--------------------|-----------------------|--------------------|
--------------------|-----------------------|--------------------|


  E  E  E  E  E  E     E  E  E  E  E  E     E  E  E  E  E  E   
--------------------|--------------------|--------------------|
-----7-----7-----7--|-----4-----4-----4--|-----6-----6-----6--|
--8-----8-----8-----|--4-----4-----4-----|--7-----7-----7-----|
--------------------|--------------------|--------------------|
--------------------|--------------------|--------------------|
--------------------|--------------------|--------------------|


  E  E  E  E  E  E     H        Q       Q     Q     E  E      H         Q     
--------------------|----------------|--------------------|------------------|
-----3-----3-----3--|----------------|--9----11----12-----|--11b--------L----|
--3-----3-----3-----|--4--------8----|--------------------|------------------|
--------------------|----------------|--------------------|------------------|
--------------------|----------------|--------------------|------------------|
--------------------|----------------|--------------------|------------------|


  Q     Q    Q       H        Q       H        Q      
------------------|----------------|----------------||
--L---------------|--7--------L----|--L--------L----||
-------10----7----|----------------|----------------||
------------------|----------------|----------------||
------------------|--6--------L----|--L--------L----||
------------------|----------------|----------------||


Guitar 4

                                           E  E  E  E  E  E   
-------|-------|-------|-------|-------|---------------------|
-------|-------|-------|-------|-------|------7-----7-----7--|
-------|-------|-------|-------|-------|--/8-----8-----8-----|
-------|-------|-------|-------|-------|---------------------|
-------|-------|-------|-------|-------|---------------------|
-------|-------|-------|-------|-------|---------------------|


   E   E   E   E   E   E      E   E   E   E   E   E      E  E   E  E   E  E   
--------------------------|--------------------------|-----------------------|
------11------11------11--|------12------12------12--|------9------9------9--|
--11------11------11------|--13------13------13------|--10-----10-----10-----|
--------------------------|--------------------------|-----------------------|
--------------------------|--------------------------|-----------------------|
--------------------------|--------------------------|-----------------------|


   E   E   E   E   E   E     E  E  E  E  E  E      E  E   E  E   E  E   
--------------------------|--------------------|-----------------------|
------11------11------11--|-----7-----7-----7--|------9------9------9--|
--11------11------11------|--8-----8-----8-----|--10-----10-----10-----|
--------------------------|--------------------|-----------------------|
--------------------------|--------------------|-----------------------|
--------------------------|--------------------|-----------------------|


  E  E  E  E  E  E     Q    Q    Q       Q    Q    Q       Q    Q    Q     
--------------------|-----------------|-----------------|-----------------|
-----6-----6--4--6--|--7----4---------|-----------------|-----------------|
--7-----7-----------|------------4----|-----------------|-----------------|
--------------------|-----------------|--4----1---------|-------1----4----|
--------------------|-----------------|------------2----|--1--------------|
--------------------|-----------------|-----------------|-----------------|


  Q    Q    Q       H        Q       H        Q      
-----------------|----------------|----------------||
-------3----6----|----------------|----------------||
--3--------------|--8--------L----|--L--------L----||
-----------------|----------------|----------------||
-----------------|--6--------L----|--L--------L----||
-----------------|----------------|----------------||


Duration Legend
---------------
W - whole
H - half
Q - quarter
E - 8th
S - 16th
T - 32nd
X - 64th
. - note dotted
|-n-|  - n-tuplets


Tablature Legend
----------------
L - tied note
x - dead note
g - grace note
(n) - ghost note
> - accentuded note
NH - natural harmonic
AH - artificial harmonic
TH - tapped harmonic
SH - semi harmonic
PH - pitch harmonic
h - hammer on
p - pull off
b - bend
br - bendRelease
pb - preBend
pbr - preBendRelease
brb - bendReleaseBend
\n/ - tremolo bar dip
\n - tremolo bar dive
-/n - tremolo bar Release up
/n\ - tremolo bar inverted dip
/n - tremolo bar return
-\n - tremolo bar Release down
S - shift slide
s - legato slide
/ -  slide into from below or out of upwards
\ -  slide into from above or out of downwards
~ - vibrato
W - wide vibrato
tr - trill
TP - tremolo picking
T - tapping
S - slap
P - pop
< - fade in
^ - brush up
v - brush down


That is all! I hope this helped, and be sure to check out my cover if you are
having problems with the tab. Thanks, oh and one last thing... ROCK OUT!!!!
comments
print report bad tab
1 comment total.
0 reply
orvis wrote on January 22 2013, 11:35 am

from what I see, it's right, but I would've notated it in 12/8, It would eliminate all those triplets

I want to post or [tab]
guest
You may want to rate the tab now too:
select rating
Please do not post tabs as comments. Select "correction" instead!