Oops, an error
Loading. Please wait.

Born To Rock And Roll Tab

165 views 1 this week
no commentswrite comment
1 2 3 4 5
please rate
Autoscroll
+/-
esc
set tempo
stop
Contributor
Difficulty
Tuning
intermediate
D# G# C# F# A# D#
Hey! There's an official Ultimate Guitar app which is ideal
for learning songs when you're away from computer. Get the app
WARNING: You are trying to view
                                    content from Ultimate-Guitar.com
                                    in an unauthorized application,
                                    which is prohibited.

                                    Please use an official Ultimate
                                    Guitar Tabs application for iPhone,
                                    iPad or Android to access legitimate
                                    chords, guitar, bass, and drum tabs
                                    from Ultimate-Guitar.com database.

                                    Type "ultimate guitar tabs" in Apple
                                    App Store's or Android Market's
                                    search to find the application.
-----------------------------------------------------------------------------
1.                            Born To Rock & Roll - Blackfoot
2.                                 No Reservations-1975
3.                          Words and Music by Jakson Spires
-----------------------------------------------------------------------------
Tabbed by:Duane Baldwin
E-mail: duaneandjulie@gmail.com

Tuning: Half Step Down

Guitar I (Overdriven) Intro
e|-------------------------|------------------|--------------------|
B|---------------------3---|------------------|--------------------|
G|---------------------2---|------------------|--------------------|
D|--2--------------2---0---|--2p0-------------|--2--------------2--|
A|--2----------------------|-------2--2p0-----|--2-----------------|
E|--0---0--0h3h4-----------|---------------3--|--0---0--0h3h4------|

e|--------------|-------------------------|------------------|
B|--------------|---------------------3---|------------------|
G|--5----5---5--|---------------------2---|------------------|
D|--5----5---5--|--2--------------2---0---|--2p0-------------|
A|--3----7---7--|--2----------------------|-------2--2p0-----|
E|--------------|--0---0--0h3h4-----------|---------------3--|

e|--------------------|------------2---|
B|--------------------|--3----3----3---|
G|--------------------|--0----0----2---|
D|--2--------------2--|--2----0----0---|
A|--2-----------------|--3-------------|
E|--0---0--0h3h4------|----------------|

1st Verse
e|----------------------------|--------5---|----------3------|
B|----------------------------|--------5---|----------3------|
G|-------------------------2--|---2----2---|--0---0---0---4--|
D|--2------------------2---2--|---2--------|--0---0---0---4--|
A|--2--------------2-------0--|---0--------|--2---2-------2--|
E|--0---0--0h3h4--------------|------------|--3---3----------|

                       L.R ---|
e|-------------------|----------------------------|--------5---|
B|-------------------|----------------------------|--------5---|
G|--4-4---4----------|-------------------------2--|---2----2---|
D|--4-4-------4------|--2------------------2---2--|---2--------|
A|--0h2--------------|--2--------------2-------0--|---0--------|
E|----------------3--|--0---0--0h3h4--------------|------------|

e|------3---3---3---3--|---------------------|-------------------------|
B|------3---3---3---3--|---------------------|-------------------------|
G|--0---0---0---0---0--|--4---4--------------|----------------------2--|
D|--0---0---0---0---0--|--4---4---3---5---7--|--2--2--2---------2---2--|
A|--2------------------|--2---2---3---5---7--|--2--2--2-------------0--|
E|--3------------------|----------1---3---5--|--0--0--0---3h4----------|


                                 L.R --------------|
e|-------5---|------3--3--3--3--------|-----------------------|
B|-------5---|------3--3--3--3--------|-----------------------|
G|--2----2---|------0--0--0--0--------|--4--------4-----------|
D|--2--------|------0--0--0--0----4---|-----4--------4--------|
A|--0--------|--2-----------------2---|--------2--------------|
E|-----------|--3---------------------|-----------------3--2--|

e|---------------------|-------5----|
B|---------------------|-------5----|
G|------------------2--|--2----2----|
D|--2-----------2---2--|--2---------|
A|--2---------------0--|--0---------|
E|--0---0h3h4----------|------------|

Pre Chorus
e|-------------------------|--------------------------|
B|-------------------------|--------------------------|
G|-------------------------|--------------------------|
D|-------------------------|--------------------------|
A|-------------------------|--3---2---3---2h3p2-------|
E|--3---2---3---2h3p2---0--|----------------------3---|

Intro Reprise
e|-------------------------|------------------|--------------------|
B|---------------------3---|------------------|--------------------|
G|---------------------2---|------------------|--------------------|
D|--2--------------2---0---|--2p0-------------|--2--------------2--|
A|--2----------------------|-------2--2p0-----|--2-----------------|
E|--0---0--0h3h4-----------|---------------3--|--0---0--0h3h4------|

e|--------------|-------------------------|------------------|
B|--------------|---------------------3---|------------------|
G|--5----5---5--|---------------------2---|------------------|
D|--5----5---5--|--2--------------2---0---|--2p0-------------|
A|--3----7---7--|--2----------------------|-------2--2p0-----|
E|--------------|--0---0--0h3h4-----------|---------------3--|

e|--------------------|--------------|
B|--------------------|--------------|
G|--------------------|--5----5---5--|
D|--2--------------2--|--5----5---5--|
A|--2-----------------|--3----7---7--|
E|--0---0--0h3h4------|--------------|

2nd Verse
                                          L.R.-------------------|   
e|-----------------------------|----5----|--3---3-------3-----------|
B|-----------------------------|----5----|--3---------------3-------|
G|--------------------------2--|----2----|--0-------0-----------0---|
D|--2-------------2p0-------2--|----2----|--0-----------------------|
A|--2---------2---------2---0--|----0----|--2-----------------------|
E|--0---3h4--------------------|---------|--3-----------------------|

       L.R.----------|
e|---------------------------------|-----------------------------|----5----|
B|---------------------------------|-----------------------------|----5----|
G|--4---4-----------4--------------|--------------------------2--|----2----|
D|--4-------4-----------4----------|--2-------------2p0-------2--|----2----|
A|--2-----------2-----------2------|--2---------2---------2---0--|----0----|
E|------------------------------3--|--0---3h4--------------------|---------|

   L.R.------------------|
e|--3---3-------3----------|---------------------|-------------------------|
B|--3---------------3------|---------------------|-------------------------|
G|--0-------0-----------0--|--4--4---------------|----------------------2--|
D|--0----------------------|--4--4----3---5---5--|--2--2--2---------2---2--|
A|--2----------------------|--2--2----3---5---5--|--2--2--2-------------0--|
E|--3----------------------|----------1---3---7--|--0--0--0---3h4----------|

             L.R.------------------|        L.R.----------|
e|----5----|--3---3-------3-----------|---------------------------------|
B|----5----|--3---------------3-------|---------------------------------|
G|----2----|--0-------0-----------0---|--4---4-----------4--------------|
D|----2----|--0-----------------------|--4-------4-----------4----------|
A|----0----|--2-----------------------|--2-----------2-----------2------|
E|---------|--3-----------------------|------------------------------3--|

e|-----------------------------|----5----|-------------------------|
B|-----------------------------|----5----|-------------------------|
G|--------------------------2--|----2----|-------------------------|
D|--2-------------2p0-------2--|----2----|-------------------------|
A|--2---------2---------2---0--|----0----|-------------------------|
E|--0---3h4--------------------|---------|--3---2---3---2h3p2---0--|

Pre Chorus

                             L.R.                          
e|-------------------------|----------------------------|
B|-------------------------|--1---------1---0h1---0-----|
G|-------------------------|--0------0---------------0--|
D|-------------------------|--2---2---------------------|
A|-------------------------|--3-------------------------|
E|--3---2---3---2h3p2---0--|----------------------------|

 1st Chorus (Clean Tone)

  L.R.                L.R.                       L.R.           
e|--2---------2-----|---------------------------|------------0-----------|
B|--3------3-----3--|--1--------1---0h1---0-----|---------0-----0--------|
G|--2---2-----------|--0------0--------------0--|--0---0-----------0-----|
D|--0---------------|--2---2--------------------|--2------------------2--|
A|------------------|--3------------------------|--2---------------------|
E|------------------|---------------------------|--0---------------------|

    L.R.                     L.R.
e|----------------------------|--2-----------2------|
B|--1---------1---0h1---0-----|--3-------3-------3--|
G|--0------0---------------0--|--2---2--------------|
D|--2---2---------------------|--0------------------|
A|--3-------------------------|---------------------|
E|----------------------------|---------------------|

(Overdriven Tone)
e|-----------------|---------------------------------|
B|-----------------|--------------------------8------|
G|--9---7---5---5--|--9---7---------------7---7---9--|
D|--9---7---5---5--|--9---7---9---7---9---7-------9--|
A|-----------------|----------9---7---9--------------|
E|-----------------|---------------------------------|

e|------------------------------|------------------|
B|------------------------------|------------------|
G|--9---7-----------------------|------5---7---7---|
D|--9---7---9\7---5---7p5-------|--7---5---7---7---|
A|----------9\7---5---7p5---7---|--7---------------|
E|--------------------------7---|------------------|

Main Solo
e|-------------|------------|----------------------|-----------------|
B|-------------|------------|----------------------|-----------------|
G|----9\7/9----|--4-----4---|----------------------|-----------------|
D|----9\7/9----|--4-----4---|--7---7---5---7---5---|------------2----|
A|----7\5/7----|--2---0h2---|--7---7---5---7---5---|--2--------------|
E|-------------|------------|--5---5---3---5---3---|--0---3h4--------|

e|-------------|------------|----------------------|-----------------|
B|-------------|------------|----------------------|-----------------|
G|----9\7/9----|--4-----4---|----------------------|-----------------|
D|----9\7/9----|--4-----4---|--7---7---5---7---5---|------------2----|
A|----7\5/7----|--2---0h2---|--7---7---5---7---5---|--2--------------|
E|-------------|------------|--5---5---3---5---3---|--0---3h4--------|

e|-------------|------------|----------------------|-----------------|
B|-------------|------------|----------------------|-----------------|
G|----9\7/9----|--4-----4---|----------------------|-----------------|
D|----9\7/9----|--4-----4---|--7---7---5---7---5---|------------2----|
A|----7\5/7----|--2---0h2---|--7---7---5---7---5---|--2--------------|
E|-------------|------------|--5---5---3---5---3---|--0---3h4--------|

e|-------------|------------|----------------------|-----------------|
B|-------------|------------|----------------------|-----------------|
G|----9\7/9----|--4-----4---|----------------------|-----------------|
D|----9\7/9----|--4-----4---|--7---7---5---7---5---|------------2----|
A|----7\5/7----|--2---0h2---|--7---7---5---7---5---|--2--------------|
E|-------------|------------|--5---5---3---5---3---|--0---3h4--------|

e|--------------------|--------------------|--------------5-----------7---5--|
B|--------------3/5---|--------------------|--5---------------8---5----------|
G|--4---2---0---------|--7---5-------5/7---|------7---5----------------------|
D|--------------------|----------7---------|---------------------------------|
A|--------------------|--------------------|---------------------------------|
E|--------------------|--------------------|---------------------------------|

e|-----7/12---17b---17pb---17hbf---17pb---17hbf---17pb---|
B|-8-----------------------------------------------------|
G|-------------------------------------------------------|
D|-------------------------------------------------------|
A|-------------------------------------------------------|
E|-------------------------------------------------------|

* Third Guitar comes in plays intro section under solos

e|--17b---17b---17b---17---17b--|--15---17---|--15---14h15---14---12---14p12-|
B|------------------------------|------------|-------------------------------|
G|------------------------------|------------|-------------------------------|
D|------------------------------|------------|-------------------------------|
A|------------------------------|------------|-------------------------------|
E|------------------------------|------------|-------------------------------|

e|------------12p10--------------|--------------------------------------|
B|--15---12-----------12\10---8--|--10---10b---8---10br---8---10br---8--|
G|-------------------------------|--------------------------------------|
D|-------------------------------|--------------------------------------|
A|-------------------------------|--------------------------------------|
E|-------------------------------|--------------------------------------|

e|--------------------------|--12b---12b---10--------10---12p10-------|
B|--15b---15b---15pbr---12--|-------------------12----------------12--|
G|--------------------------|-----------------------------------------|
D|--------------------------|-----------------------------------------|
A|--------------------------|-----------------------------------------|
E|--------------------------|-----------------------------------------|

e|--15p12--------12----------------------------------------------------------|
B|----------15--------12---15p12--------12-----------------------------------|
G|---------------------------------14--------15---14---12---14---12---14---15|
D|---------------------------------------------------------------------------|
A|---------------------------------------------------------------------------|
E|---------------------------------------------------------------------------|

e|--------------------------------------15p12--------12---------|
B|-------------------------15p12----------------15--------15b---|
G|--14---12---14p12----------------14---------------------------|
D|--------------------14----------------------------------------|
A|--------------------------------------------------------------|
E|--------------------------------------------------------------|

3rd Verse
                                           L.R.------------------| 
e|-----------------------------|----5----|--3---3-------3-----------|
B|-----------------------------|----5----|--3---------------3-------|
G|--------------------------2--|----2----|--0-------0-----------0---|
D|--2-------------2p0-------2--|----2----|--0-----------------------|
A|--2---------2---------2---0--|----0----|--2-----------------------|
E|--0---3h4--------------------|---------|--3-----------------------|

e|-----------------------------|-----------------------------|----5----|
B|-----------------------------|-----------------------------|----5----|
G|--4---4----------------------|--------------------------2--|----2----|
D|--4---4---------5---7/5------|--2-------------2p0-------2--|----2----|
A|--2---2---4/7-------------7--|--2---------2---------2---0--|----0----|
E|-----------------------------|--0---3h4--------------------|---------|

    L.R.------------------|
e|--3---3-------3-----------|-------------------------|----------------------|
B|--3---------------3-------|-------------------------|----------------------|
G|--0-------0-----------0---|--4---4------------------|--------------------2-|
D|--0-----------------------|--4---4---3---5---5---7--|-2--2--2--------2---2-|
A|--2-----------------------|--2---2---3---5---5---7--|-2--2--2------------0-|
E|--3-----------------------|----------1---3---3---5--|-0--0--0---3h4--------|

             L.R.------------------|        L.R.----------|
e|----5----|--3---3-------3-----------|---------------------------------|
B|----5----|--3---------------3-------|---------------------------------|
G|----2----|--0-------0-----------0---|--4---4-----------4--------------|
D|----2----|--0-----------------------|--4-------4-----------4----------|
A|----0----|--2-----------------------|--2-----------2-----------2------|
E|---------|--3-----------------------|------------------------------3--|

e|-----------------------------|----5----|
B|-----------------------------|----5----|
G|--------------------------2--|----2----|
D|--2-------------2p0-------2--|----2----|
A|--2---------2---------2---0--|----0----|
E|--0---3h4--------------------|---------|

Pre Chorus
                            L.R                     
e|-------------------------|----------------------------|
B|-------------------------|--1---------1---0h1---0-----|
G|-------------------------|--0------0---------------0--|
D|-------------------------|--2---2---------------------|
A|-------------------------|--3-------------------------|
E|--3---2---3---2h3p2---0--|----------------------------|

2nd Chorus (Clean Tone)

  L.R.                    L.R.                       L.R.           
e|--2---------2---------|---------------------------|------------0-----------|
B|--3------3-----3------|--1--------1---0h1---0-----|---------0-----0--------|
G|--2---2------------2--|--0------0--------------0--|--0---0-----------0-----|
D|--0-------------------|--2---2--------------------|--2------------------2--|
A|----------------------|--3------------------------|--2---------------------|
E|----------------------|---------------------------|--0---------------------|


    L.R.                     L.R.
e|----------------------------|--2-----------2----------|
B|--1---------1---0h1---0-----|--3-------3-------3------|
G|--0------0---------------0--|--2---2---------------2--|
D|--2---2---------------------|--0----------------------|
A|--3-------------------------|-------------------------|
E|----------------------------|-------------------------|


(Overdriven Tone)
e|-----------------|---------------------------------|
B|-----------------|--------------------------8------|
G|--9---7---5---5--|--9---7---------------7---7---9--|
D|--9---7---5---5--|--9---7---9---7---9---7-------9--|
A|-----------------|----------9---7---9--------------|
E|-----------------|---------------------------------|

e|------------------------------|----------------------------------|
B|------------------------------|----------------------------------|
G|--9---7-----------------------|------7---9---7---9---7---5---5---|
D|--9---7---9\7---5---7p5-------|--9---7---9---7---9---7---5---5---|
A|----------9\7---5---7p5---7---|--9-------------------------------|
E|--------------------------7---|----------------------------------|

Outro
e|-----------------|---------------------------------|
B|-----------------|--------------------------8------|
G|--9---7---5---5--|--9---7---------------7---7---9--|
D|--9---7---5---5--|--9---7---9---7---9---7-------9--|
A|-----------------|----------9---7---9--------------|
E|-----------------|---------------------------------|

e|------------------------------|----------------------------------|
B|------------------------------|----------------------------------|
G|--9---7-----------------------|------7---9---7---9---7---5---5---|
D|--9---7---9\7---5---7p5-------|--9---7---9---7---9---7---5---5---|
A|----------9\7---5---7p5---7---|--9-------------------------------|
E|--------------------------7---|----------------------------------|

e|-----------------|---------------------------------|
B|-----------------|--------------------------8------|
G|--9---7---5---5--|--9---7---------------7---7---9--|
D|--9---7---5---5--|--9---7---9---7---9---7-------9--|
A|-----------------|----------9---7---9--------------|
E|-----------------|---------------------------------|

e|------------------------------|----------------------------------|
B|------------------------------|----------------------------------|
G|--9---7-----------------------|------7---9---7---9---7---5---5---|
D|--9---7---9\7---5---7p5-------|--9---7---9---7---9---7---5---5---|
A|----------9\7---5---7p5---7---|--9-------------------------------|
E|--------------------------7---|----------------------------------|

e|-----------------|---------------------------------|
B|-----------------|--------------------------8------|
G|--9---7---5---5--|--9---7---------------7---7---9--|
D|--9---7---5---5--|--9---7---9---7---9---7-------9--|
A|-----------------|----------9---7---9--------------|
E|-----------------|---------------------------------|
                                                
                                                         Fade Out
e|------------------------------|----------------------------------|
B|------------------------------|----------------------------------|
G|--9---7-----------------------|------7---9---7---9---7---5---5---|
D|--9---7---9\7---5---7p5-------|--9---7---9---7---9---7---5---5---|
A|----------9\7---5---7p5---7---|--9-------------------------------|
E|--------------------------7---|----------------------------------|


Guitar II

Intro Solo ( Overdriven Guitar)
e|------------|-------------|------------|-----------|--12----12----12----|
B|------------|-------------|------------|-----------|--15b---15b---15b---|
G|-----2b-----|---2br---0---|------------|-----------|--------------------|
D|------------|-------------|---2--------|-----------|--------------------|
A|------------|-------------|------------|-----------|--------------------|
E|------------|-------------|-------0----|-----------|--------------------|

e|--------------------|-----------|--------------|
B|--15br---12---------|-----------|--------------|
G|--------------14b---|-----------|--5---7---7---|
D|--------------------|-----------|--5---7---7---|
A|--------------------|-----------|--3---5---5---|
E|--------------------|-----------|--------------|

1st Verse

e|----------------------------|-----------5---5--|----------3---3------|
B|----------------------------|-----------5---5--|------3---3---3------|
G|-------------------------2--|---2---2---2---2--|--0---0---0---0---4--|
D|--2------------------2---2--|---2---2---2---2--|--0---0---0---0---4--|
A|--2--------------2-------0--|---0---0---0---0--|--2---2---2---2---2--|
E|--0---0--0h3h4--------------|------------------|--3---3---3---3------|

e|-----------------|-----------------------------|-----------5---5---|
B|-----------------|-----------------------------|-----------5---5---|
G|--4-4---4--------|--------------------------2--|---2---2---2---2---|
D|--4-4---4--------|--2-------------2p0-------2--|---2---2---2---2---|
A|--0h2---2--------|--2---------2---------2---0--|---0---0---0---0---|
E|--------------3--|--0---3h4--------------------|-------------------|

e|----------3---3-----|---------------------|--------0---------|
B|------3---3---3-----|---------------------|--------0---------|
G|--0---0---0---0-----|--4---4--------------|--------1------2--|
D|--0---0---0---0-----|--4---4---3---5---7--|--2------------2--|
A|--2---2---2---2-----|--2---2---3---5---7--|--2------------0--|
E|--3---3---3---3-----|----------1---3---5--|--0---------------|

e|-----5-----|-------3----------|--------------|-------------------------|
B|-----5-----|-------3----------|--------------|-------------------------|
G|-----2-----|-------0----------|--4-----------|----------------------2--|
D|-----------|-------0------4---|--4-----------|--2---------------2---2--|
A|-----------|--2----2------2---|--2-----------|--2-------------------0--|
E|-----------|--3----3----------|--------3--2--|--0---0---0h3h4----------|

e|-------5----|
B|-------5----|
G|--2----2----|
D|--2---------|
A|--0---------|
E|------------|

Pre Chorus
e|-------------------------|--------------------------|
B|-------------------------|--------------------------|
G|-------------------------|--------------------------|
D|-------------------------|--------------------------|
A|-------------------------|--3---2---3---2h3p2-------|
E|--3---2---3---2h3p2---0--|----------------------3---|

Intro Reprise
e|-------------------------|------------------|--------------------|
B|---------------------3---|------------------|--------------------|
G|---------------------2---|------------------|--------------------|
D|--2--------------2---0---|--2p0-------------|--2--------------2--|
A|--2----------------------|-------2--2p0-----|--2-----------------|
E|--0---0--0h3h4-----------|---------------3--|--0---0--0h3h4------|

e|-----------2---|-------------------------|------------------|
B|--3----3---3---|---------------------3---|------------------|
G|--0----0---2---|---------------------2---|------------------|
D|--2----0---0---|--2--------------2---0---|--2p0-------------|
A|--3------------|--2----------------------|-------2--2p0-----|
E|---------------|--0---0--0h3h4-----------|---------------3--|

e|--------------------|------------2----|
B|--------------------|--3----0----3----|
G|--------------------|--0----0----2----|
D|--2--------------2--|--0----0----0----|
A|--2-----------------|--3--------------|
E|--0---0--0h3h4------|-----------------|

2nd Verse

e|---------------------------|-------5---5--|--3---3---3---3---3---|
B|---------------------------|-------5---5--|--3---3---3---3---3---|
G|------------------------2--|---2---2---2--|--0---0---0---0---0---|
D|--2-----------------2---2--|---2---2---2--|--0---0---0---0---0---|
A|--2-------------2-------0--|---0---0---0--|--2---2---2---2---2---|
E|--0-----0h3h4--------------|--------------|--3---3---3---3---3---|

e|------------------------------|--------------------------|--------5---5--|
B|------------------------------|--------------------------|--------5---5--|
G|--4---4-----------4-----------|-----------------------2--|---2----2---2--|
D|--4-------4-----------4-------|--2----------------2---2--|---2----2---2--|
A|--2-----------2---------------|--2-------------2------0--|---0----0---0--|
E|---------------------------3--|--0---0---3h4-------------|---------------|

e|--3---3---3---3---3--|---------------------|--------------------------|
B|--3---3---3---3---3--|---------------------|--------------------------|
G|--0---0---0---0---0--|--4---4--------------|------------------2----2--|
D|--0---0---0---0---0--|--4---4---3---5---7--|--2---2----------------2--|
A|--2---2---2---2---2--|--2---2---3---5---7--|--2---2----------------0--|
E|--3---3---3---3---3--|----------1---3---5--|--0---0----3h4------------|

e|-------5---5--|--3---3---3---3---3---|------------------------------|
B|-------5---5--|--3---3---3---3---3---|------------------------------|
G|---2---2---2--|--0---0---0---0---0---|--4---4-----------4-----------|
D|---2---2---2--|--0---0---0---0---0---|--4-------4-----------4-------|
A|---0---0---0--|--2---2---2---2---2---|--2-----------2---------------|
E|--------------|--3---3---3---3---3---|---------------------------3--|

e|-----------------------------|-------5---5--|--------------------------|
B|-----------------------------|-------5---5--|--------------------------|
G|--------------------------2--|---2---2---2--|--------------------------|
D|--2-------------------2---2--|---2---2---2--|--------------------------|
A|--2---------------2-------0--|---0---0---0--|--------------------------|
E|--0-----0---3h4--------------|--------------|--3---2---3---2h3p2---0---|

Pre Chorus
e|--------------------------|----------------------|
B|--------------------------|----------------------|
G|--------------------------|----------------------|
D|--------------------------|----------------------|
A|--------------------------|--3---2---3---2---0---|
E|--3---2---3---2h3p2---0---|----------------------|

1st Chorus

  L.R ----|
e|----------2---|----------------------|--------------|----------------------|
B|----------3---|---3------------------|---------0----|---3------------------|
G|------2---2---|---0------------------|---------0----|---0------------------|
D|--0-------0---|---2------------------|---------2----|---2------------------|
A|--------------|---3---2---3---2------|--------------|---3---2---3---2---0--|
E|--------------|-------------------3--|---0----------|----------------------|

  L.R ----|
e|----------2---|--------------------|-----------------------------------|
B|----------3---|--------------------|--7-----------------------8--------|
G|------2---2---|---9---7--------9---|------9---7-------7---9-------9----|
D|--0-------0---|-----------10-------|--------------9--------------------|
A|--------------|--------------------|-----------------------------------|
E|--------------|--------------------|-----------------------------------|

e|-----------------------------|------------------|
B|-----------------------------|------------------|
G|--9---7----------------------|--------------5---|
D|----------9\7---5---7p5------|------5---7-------|
A|--------------------------7--|--7---------------|
E|-----------------------------|------------------|

Main Solo
e|------------------------|-----------------------|-----------------------|
B|------------------------|-----------------------|-----------------------|
G|--------------------9---|--7p6-------7---6------|--7b---7pbr---4---2b---|
D|--------------6/9-------|--------7-----------7--|-----------------------|
A|--7---5---7-------------|-----------------------|-----------------------|
E|------------------------|-----------------------|-----------------------|

e|-----------------------------|--------------------------------|
B|--------------------------8--|--10---10pbr---8-------------8--|
G|--2br---2---0-------6/9------|-------------------9---6/9------|
D|----------------2------------|--------------------------------|
A|-----------------------------|--------------------------------|
E|-----------------------------|--------------------------------|

e|---------------------------------10--|-------------------------------------|
B|--10pbr---8---10-------8---10b-------|--10br---8---10p8-------8---10-------|
G|-------------------9-----------------|--------------------9------------9--7|
D|-------------------------------------|-------------------------------------|
A|-------------------------------------|-------------------------------------|
E|-------------------------------------|-------------------------------------|

e|--------------------------------------|-------12-----------------12--------|
B|----------------------------------12--|--15--------15b----------------12---|
G|--9p7-------7-------------11/13-------|------------------10/13-------------|
D|--------7-------7p5-------------------|------------------------------------|
A|----------------------7---------------|------------------------------------|
E|--------------------------------------|------------------------------------|

e|--15b---15---15b---15b---15---14--|
B|----------------------------------|
G|----------------------------------|
D|----------------------------------|
A|----------------------------------|
E|----------------------------------|

e|--12---12p10-------------10--------------------------------------|
B|---------------12---10--------10---12---10---8-------10-------8--|
G|-------------------------------------------------9--------9------|
D|-----------------------------------------------------------------|
A|-----------------------------------------------------------------|
E|-----------------------------------------------------------------|

e|--------10----------------------------|------------------------------10--|
B|--10b--------10pbr---8-------------8--|--10---10pbr---8-------8/12-------|
G|-------------------------9---6/9------|-------------------9--------------|
D|--------------------------------------|----------------------------------|
A|--------------------------------------|----------------------------------|
E|--------------------------------------|----------------------------------|

e|--12br---10---12-----------------|--------7---10p7--------7----------------|
B|-------------------12---------8--|--10b--------------10-------11---10---8--|
G|------------------------6/9------|-----------------------------------------|
D|---------------------------------|-----------------------------------------|
A|---------------------------------|-----------------------------------------|
E|---------------------------------|-----------------------------------------|

e|----------------------------------|---------------------|------------------|
B|------10---8---10br---10---8------|---------------------|------------------|
G|--9----------------------------9--|--9---7-------10h12--|--11--9--7--12h14-|
D|----------------------------------|----------9----------|------------------|
A|----------------------------------|---------------------|------------------|
E|----------------------------------|---------------------|------------------|

e|----------------------------------------|--------------21b---21pb---21hb--|
B|-------------------------------12-------|------14/17----------------------|
G|--12------------14---12-------------14--|--12-----------------------------|
D|------14---12-------------14------------|---------------------------------|
A|----------------------------------------|---------------------------------|
E|----------------------------------------|---------------------------------|


* Third Guitar comes in plays intro section under solos

e|--21pb---21hb---21pb---21b---21b---21b---21---21b---|--15---17---|
B|----------------------------------------------------|------------|
G|----------------------------------------------------|------------|
D|----------------------------------------------------|------------|
A|----------------------------------------------------|------------|
E|----------------------------------------------------|------------|

e|--15---14h15---14---12---14p12-------------12p10-------------|
B|---------------------------------15---12-----------12p10\8---|
G|-------------------------------------------------------------|
D|-------------------------------------------------------------|
A|-------------------------------------------------------------|
E|-------------------------------------------------------------|

e|---------------------------------|-------12-------------------12-----------|
B|--10---10b---8---10b---10b-------|--15--------15---12---15b--------15---12-|
G|-----------------------------9---|-----------------------------------------|
D|---------------------------------|-----------------------------------------|
A|---------------------------------|-----------------------------------------|
E|---------------------------------|-----------------------------------------|

e|--15b---15b---15p12h15--|--12--------12---15p12--------12----------------|
B|------------------------|-------15----------------15--------15p12--------|
G|------------------------|-------------------------------------------14---|
D|------------------------|------------------------------------------------|
A|------------------------|------------------------------------------------|
E|------------------------|------------------------------------------------|

e|---------------------|----------------------------15p12--------12---------|
B|---------------------|---------------15p12----------------15--------15b---|
G|--12--------12---14--|--14p12----------------14---------------------------|
D|-------14------------|----------14----------------------------------------|
A|---------------------|----------------------------------------------------|
E|---------------------|----------------------------------------------------|

3rd Verse
e|-----------------------------|----------5---5--|--3---3---3---3---3---|
B|-----------------------------|----------5---5--|--3---3---3---3---3---|
G|--------------------------2--|--2---2---2---2--|--0---0---0---0---0---|
D|--2-------------------2---2--|--2---2---2---2--|--0---0---0---0---0---|
A|--2---------------2-------0--|--0---0---0---0--|--2---2---2---2---2---|
E|--0---0---0h3h4--------------|-----------------|--3---3---3---3---3---|

e|------------------------------|--------------------------|--------5---5--|
B|------------------------------|--------------------------|--------5---5--|
G|--4---4-----------4-----------|-----------------------2--|---2----2---2--|
D|--4-------4-----------4-------|--2----------------2---2--|---2----2---2--|
A|--2-----------2---------------|--2-------------2------0--|---0----0---0--|
E|---------------------------3--|--0---0---3h4-------------|---------------|

e|--3---3---3---3---3--|-------------------------|--------------------------|
B|--3---3---3---3---3--|-------------------------|--------------------------|
G|--0---0---0---0---0--|--4---4------------------|------------------2----2--|
D|--0---0---0---0---0--|--4---4---3---5---5---7--|--2---2----------------2--|
A|--2---2---2---2---2--|--2---2---3---5---5---7--|--2---2----------------0--|
E|--3---3---3---3---3--|----------1---3---3---5--|--0---0----3h4------------|

e|-------5---5--|--3---3---3---3---3---|------------------------------|
B|-------5---5--|--3---3---3---3---3---|------------------------------|
G|---2---2---2--|--0---0---0---0---0---|--4---4-----------4-----------|
D|---2---2---2--|--0---0---0---0---0---|--4-------4-----------4-------|
A|---0---0---0--|--2---2---2---2---2---|--2-----------2---------------|
E|--------------|--3---3---3---3---3---|---------------------------3--|

e|-----------------------------|-------5---5--|--------------------------|
B|-----------------------------|-------5---5--|--------------------------|
G|--------------------------2--|---2---2---2--|--------------------------|
D|--2-------------------2---2--|---2---2---2--|--------------------------|
A|--2---------------2-------0--|---0---0---0--|--------------------------|
E|--0-----0---3h4--------------|--------------|--3---2---3---2h3p2---0---|

Pre Chorus
e|--------------------------|----------------------|
B|--------------------------|----------------------|
G|--------------------------|----------------------|
D|--------------------------|----------------------|
A|--------------------------|--3---2---3---2---0---|
E|--3---2---3---2h3p2---0---|----------------------|

2nd Chorus
  L.R ----|
e|----------2---|----------------------|--------------|----------------------|
B|----------3---|---3------------------|---------0----|---3------------------|
G|------2---2---|---0------------------|---------0----|---0------------------|
D|--0-------0---|---2------------------|---------2----|---2------------------|
A|--------------|---3---2---3---2------|--------------|---3---2---3---2---0--|
E|--------------|-------------------3--|---0----------|----------------------|

  L.R ----|
e|----------2---|--------------------|-----------------------------------|
B|----------3---|--------------------|--7-----------------------8--------|
G|------2---2---|---9---7--------9---|------9---7-------7---9-------9----|
D|--0-------0---|-----------10-------|--------------9--------------------|
A|--------------|--------------------|-----------------------------------|
E|--------------|--------------------|-----------------------------------|

e|-----------------------------|----------------------------------|
B|-----------------------------|----------------------------------|
G|--9---7----------------------|------7---9---7---9---7--------9--|
D|----------9\7---5---7p5------|--9-----------------------10------|
A|--------------------------7--|----------------------------------|
E|-----------------------------|----------------------------------|

Outro
e|-----------------------------------|-----------------------------|
B|--7-----------------------8--------|-----------------------------|
G|------9---7-------7---9-------9----|--9---7----------------------|
D|--------------9--------------------|----------9\7---5---7p5------|
A|-----------------------------------|--------------------------7--|
E|-----------------------------------|-----------------------------|

e|----------------------------------|-----------------------------------|
B|----------------------------------|--7-----------------------8--------|
G|------7---9---7---9---7--------9--|------9---7-------7---9-------9----|
D|--9-----------------------10------|--------------9--------------------|
A|----------------------------------|-----------------------------------|
E|----------------------------------|-----------------------------------|

e|-----------------------------|----------------------------------|
B|-----------------------------|----------------------------------|
G|--9---7----------------------|------7---9---7---9---7--------9--|
D|----------9\7---5---7p5------|--9-----------------------10------|
A|--------------------------7--|----------------------------------|
E|-----------------------------|----------------------------------|

e|-----------------------------------|-----------------------------|
B|--7-----------------------8--------|-----------------------------|
G|------9---7-------7---9-------9----|--9---7----------------------|
D|--------------9--------------------|----------9\7---5---7p5------|
A|-----------------------------------|--------------------------7--|
E|-----------------------------------|-----------------------------|

                      Fade out
e|----------------------------------|
B|----------------------------------|
G|------7---9---7---9---7--------9--|
D|--9-----------------------10------|
A|----------------------------------|
E|----------------------------------|




************************************
| /   slide up
| \   slide down
| h   hammer-on
| p   pull-off
| ~   vibrato
| +   harmonic
| x   Mute note
| b   Bend
| pb  Pre-bend
| br  Bend release
| pbr Pre-bend release
| brb Bend release bend
| hb  Half Bend
************************************
Intro

E  N.C.  D  N.C.  E  N.C.  C  D

E  N.C.  D  N.C.  E  N.C.  C  D

1st Verse

E                              A               G
Now I've been working hard for so many years 

                         B
just tryin to get myself by 

E                     A             G
can't talk to people you don't know 

                       B   F  G  A
thats why some of you die 

E                          A
well I live so hard and I learn so well 

G                     B
just to push myself along 

            E                     A
but if your born to rock and roll you should know 

Pre Chorus

N.C.
ah keep rolling on 

Intro Reprise

E  N.C.  D  N.C.  E  N.C.  C  D

E  N.C.  D  N.C.  E  N.C.  C  D

2nd Verse

E                       A          G
I've drank shine from a mason jar 

                 B
to pass my time away 

E                   A           G
set my sights on a distant star 

                        B    F  G  A
cause I wanted it that way 

E                           A
I learned to read and write sing and fight 

G                    B
and all those other things 

     E                           A
I'm gonna rock and roll baby for you tonight 

Pre Chorus

N.C.

1st Chorus

D                 C
I'm coming home 

Em             C     D
Lord dont you know 

                       E D C
when the wind it blows 

E  D   B   A   B   D   G E   E  D  B  A  G  A  G  E  G  A  E
I was born to rock and roll 

now hit it 

Solo

E  D  E   

B  A  B

A  G  A  G  E

E  D  E   

B  A  B

A  G  A  G  E

E  D  E   

B  A  B

A  G  A  G  E

N.C.

E  N.C.  D  N.C.  E  N.C.  C  D

E  N.C.  D  N.C.  E  N.C.  C  D

3rd Verse

E                A
On my way to see Mister J.J. 

G                                B
to tell him of things that I've seen 

E                     A 
to show him baby that I've got more moves than your 

G            B    F  G  A
local cajun queen 

E                                  A
well you can't talk to people that you don't know 

G                      B
that's why some of you die 

E                                      A
but if your born to rock and roll then you should know 

Pre Chorus

N.C.

D                 C
I'm com-ing home

Em               C  D
Lord dont you know 


when the wind it blows 

E  D   B   A   B   D   G E   E  D  B  A  G  A  G  E  G  A  E
I was born to rock and roll 

E  D   B   A   B   D   G E   E  D  B  A  G  A  G  E  G  A  E
I was born to rock and roll  ah say it again 

E  D   B   A   B   D   G E   E  D  B  A  G  A  G  E  G  A  E
I was born to rock and roll just like you should 

E  D   B   A   B   D   G E   E  D  B  A  G  A  G  E  G  A  E
I was born to rock and roll 

Fade Out
comments
We did not receive enough feedback on this tab! Please rate:
print report bad tab
1 2 3 4 5
I want to post or [tab]
guest
You may want to rate the tab now too:
select rating
Please do not post tabs as comments. Select "correction" instead!