Oops, an error
Loading. Please wait.

Under A Violet Moon Tab

ver1
ver1

Whole song

Interactive

More versions @911Tabs.com
8,066 views 21 this week
1 commentread comment
1 2 3 4 5
excellent!
x 2
Autoscroll
+/-
esc
set tempo
stop
Contributor
Difficulty
advanced
Hey! There's an official Ultimate Guitar app which is ideal
for learning songs when you're away from computer. Get the app
WARNING: You are trying to view
                                    content from Ultimate-Guitar.com
                                    in an unauthorized application,
                                    which is prohibited.

                                    Please use an official Ultimate
                                    Guitar Tabs application for iPhone,
                                    iPad or Android to access legitimate
                                    chords, guitar, bass, and drum tabs
                                    from Ultimate-Guitar.com database.

                                    Type "ultimate guitar tabs" in Apple
                                    App Store's or Android Market's
                                    search to find the application.
#----------------------------------PLEASE NOTE---------------------------------#
#This file is the author's own work and represents their interpretation of the #
#song. You may only use this file for private study, scholarship, or research. #
#------------------------------------------------------------------------------#

UNDER A VIOLET MOON
As recorded by Blackmores night
(From the 1999 Album UNDER A VIOLET MOON)


Transcribed by Jawor Iwanow

 Words by Candice Night Music by Ritchie Blackmore
Arranged by Blackmores Night
 

Gtr I (E A D G B E) - 'Untitled'
Gtr II (E A D G B E) - 'Untitled'


  Q=170
 4/4
  Gtrs I, II
  H    Q  E E   E E E E S S S S E E   E E E E S S S S E E   E E E E E E E E
|-------------|---------------------|---------1---1-------|---------3-4-3-1--|
|-------------|-----1---3-4---3-1---|-----1-----4---4-3---|---1-4-1----------|
|-------------|---0---0-----------0-|---0---0-----------3-|------------------|
|-------------|---------------------|---------------------|------------------|
|-----------1-|-3-------------------|-3-------------------|-3----------------|
|---------3---|---------------------|---------------------|------------------|


  S S S S E E Q  E E   E E E E S S S S E E
|--------------------|---------------------|
|-4-6-4-3-1---1------|---------3-4---3-1---|
|-----------3--------|-----5-------------0-|
|--------------------|---5---5-------------|
|------------------1-|-3-------------------|
|----------------3---|---------------------|


  E E E E E E E E   E E E E  E  E  E E
|---------3-4-3---|-----3-8-10-11-10-8-|
|---1-4---------4-|---4----------------|
|-------5---------|-5------------------|
|-----------------|--------------------|
|-3---------------|--------------------|
|-----------------|--------------------|


  E E E E  Q  E E   E E E E S S S S E E
|-----------------|---------------------|
|-8---------------|---------3-4---3-1---|
|---8-7-8---------|-----5-------------0-|
|---------10------|---5---5-------------|
|---------------1-|-3-------------------|
|-------------3---|---------------------|


  E E E E E E E E   E E E E S S S S E E
|---------1-------|---------------------|
|-----------3-----|---------3-4---3-1---|
|-------3-----3---|-----5-------------0-|
|---0-3---------3-|---5---5-------------|
|-1---------------|-3-------------------|
|-----------------|---------------------|


  E E E E E E E E   E E E E S S S S E E   E E E E E E E E   E E E E E E E E
|---------1-------|---------------------|-----------------|-----------------|
|-----------3-----|---------3-4---3-1---|-----------------|-----------------|
|-------3-----3---|-----5-------------0-|-------3-------3-|-------5-------3-|
|---0-3---------3-|---5---5-------------|---0-3-------3---|-----6-------3---|
|-1---------------|-3-------------------|-1---------5-----|---6-------5-----|
|-----------------|---------------------|---------3-------|-4-------6-------|


  E E E E S S S S E E   E E E E S S S S E E   E  E  E  E  S  S S  S  E  E
|---------------------|---------------------|-----------------------------|
|---------3-4---3-1---|---------6-4-6-------|-----------------------------|
|-----5-------------0-|-----5---------7-7---|-----------------------------|
|---5---5-------------|---5---5-----------8-|------10----12-13---12-10----|
|-3-------------------|-3-------------------|---10----10---------------10-|
|---------------------|---------------------|-8---------------------------|


  E  E  E  E  Q  E E   E E E E S S S S E E
|--------------------|---------------------|
|--------------------|---------3-4---3-1---|
|--------------------|-----5-------------0-|
|------10----12------|---5---5-------------|
|---10----10-------1-|-3-------------------|
|-8--------------3---|---------------------|


  E E E E E E E E   E E E E S S S S E E
|---------1-------|---------------------|
|-----------3-----|---------3-4---3-1---|
|-------3-----3---|-----5-------------0-|
|---0-3---------3-|---5---5-------------|
|-1---------------|-3-------------------|
|-----------------|---------------------|


  E E E E E E E E   E E E E S S S S E E   E E E E E E E E   E E E E E E E E
|---------1-------|---------------------|-----------------|-----------------|
|-----------3-----|---------3-4---3-1---|-----------------|-----------------|
|-------3-----3---|-----5-------------0-|-------3-------3-|-------5-------3-|
|---0-3---------3-|---5---5-------------|---0-3-------3---|-----6-------3---|
|-1---------------|-3-------------------|-1---------5-----|---6-------5-----|
|-----------------|---------------------|---------3-------|-4-------6-------|


  E E E E S S S S E E   E E E E S S S S E E   E  E  E  E  S  S S  S  E  E
|---------------------|---------------------|-----------------------------|
|---------3-4---3-1---|---------6-4-6-------|-----------------------------|
|-----5-------------0-|-----5---------7-7---|-----------------------------|
|---5---5-------------|---5---5-----------8-|------10----12-13---12-10----|
|-3-------------------|-3-------------------|---10----10---------------10-|
|---------------------|---------------------|-8---------------------------|


  Gtr I
  W                           Q     Q    Q     E  E
|---------------------------|-3-----3----3-----1--3-|
|---------------------------|-----------------------|
|---------------------------|-----------------------|
|---------------------------|-----------------------|
|---------------------------|-----------------------|
|---------------------------|-----------------------|
|
| Gtr II
| E  E  E  E  E  S  S  E  E   E  E  E  E E  E  E  E
|---------------------------|-----------------------|
|---------------------------|-----------------------|
|---------------------------|------------8----------|
|------10----12-13-12----10-|------10------10----10-|
|---10----10----------10----|---10----10------10----|
|-8-------------------------|-8---------------------|


  Q   Q   H         Q   Q   Q   E E
|-4---3---1-------|-1---1---1--------|
|-----------------|-------------4-6--|
|-----------------|------------------|
|-----------------|------------------|
|-----------------|------------------|
|-----------------|------------------|
|
| E E E E E E E E   E E E E E E E E
|-----------------|------------------|
|-------1-------3-|---------3--------|
|-----1-------3---|-----3-----3---3--|
|---3-------3-----|---3---3-----3----|
|---------1-------|-1----------------|
|-1---------------|------------------|


  Q   Q   H         H       H         H       H         Q   E E Q   Q
|-----------------|-----------------|-----------------|-----------------|
|-8---6---4-------|-----------------|-----------------|-----------------|
|-----------------|-5-------3-------|-1-------0-------|-0---------------|
|-----------------|-----------------|-----------------|-----3-1-0---1---|
|-----------------|-----------------|-----------------|-----------------|
|-----------------|-----------------|-----------------|-----------------|
|
| E E E E E E E E   E E E E E E E E   E E E E E E E E   E E E E E E E E
|-----------------|-----------------|-----------------|-----------------|
|---------4-------|-------4-------4-|-------1-------4-|-------4-------3-|
|-----5-----5---5-|-----5-------3---|-----1-------5---|-----5-------4---|
|---5---5-----5---|---6-------5-----|---3-------5-----|---5-------5-----|
|-3---------------|-----------------|---------3-------|-3---------------|
|-----------------|-4-------3-------|-1---------------|---------3-------|


  W                     E E E E S S S S E E   E E E E E   E   E E
|---------------------|---------------------|---------3---4---3-1-|
|---------------------|---------6-4-6-4-3---|---1-4---------------|
|---------------------|-----5-------------3-|-------5-------------|
|---------------------|---5---5-------------|---------------------|
|-3-------------------|-3-------------------|-3-------------------|
|---------------------|---------------------|---------------------|
|
| E E E E S S S S E E   E E E E S S S S E E   E E E E S S S S E E
|---------------------|---------------------|---------------------|
|---------3-4---3-1---|---------6-4-6-4-3---|---1-4---3-4---3-1---|
|-----5-------------0-|-----5-------------3-|-------5-----------0-|
|---5---5-------------|---5---5-------------|---------------------|
|-3-------------------|-3-------------------|-3-------------------|
|---------------------|---------------------|---------------------|


  S  S S S E E H        W
|---------------------|---------------------|
|-4--6-4-3-1---1------|---------------------|
|------------3--------|---------------------|
|---------------------|---------------------|
|---------------------|---------------------|
|---------------------|---------------------|
|
| H.              E E   E E E E S S S S E E
|---------------------|---------------------|
|---------------------|---------3-4---3-1---|
|---------------------|-----5-------------0-|
|---------------------|---5---5-------------|
|-3-----------------1-|-3-------------------|
|-----------------3---|---------------------|


  W                 W
|-----------------|---------------------|
|-----------------|---------------------|
|-----------------|---------------------|
|-----------------|---------------------|
|-----------------|---------------------|
|-----------------|---------------------|
|
| E E E E E E E E   E E E E S S S S E E
|---------1-------|---------------------|
|-----------3-----|---------3-4---3-1---|
|-------3-----3---|-----5-------------0-|
|---0-3---------3-|---5---5-------------|
|-1---------------|-3-------------------|
|-----------------|---------------------|


  Gtr II
  E E E E E E E E   E E E E S S S S E E   E E E E E E E E   E E E E E E E E
|---------1-------|---------------------|-----------------|-----------------|
|-----------3-----|---------3-4---3-1---|-----------------|-----------------|
|-------3-----3---|-----5-------------0-|-------3-------3-|-------5-------3-|
|---0-3---------3-|---5---5-------------|---0-3-------3---|-----6-------3---|
|-1---------------|-3-------------------|-1---------5-----|---6-------5-----|
|-----------------|---------------------|---------3-------|-4-------6-------|


  E E E E S S S S E E   E E E E S S S S E E   E E E E S S S S E E
|---------------------|---------------------|---------------------|
|---------3-4---3-1---|---------6-4-6-4-3---|---------3-4---3-1---|
|-----5-------------0-|-----5-------------3-|-----5-------------0-|
|---5---5-------------|---5---5-------------|---5---5-------------|
|-3-------------------|-3-------------------|-3-------------------|
|---------------------|---------------------|---------------------|


  E E E E E E E E   E E E E S S S S E E
|---------1-------|---------------------|
|-----------3-----|---------3-4---3-1---|
|-------3-----3---|-----5-------------0-|
|---0-3---------3-|---5---5-------------|
|-1---------------|-3-------------------|
|-----------------|---------------------|


  E E E E E E E E   E E E E S S S S E E
|---------1-------|---------------------|
|-----------3-----|---------3-4---3-1---|
|-------3-----3---|-----5-------------0-|
|---0-3---------3-|---5---5-------------|
|-1---------------|-3-------------------|
|-----------------|---------------------|


  E E E E E E E E   E E E E E E E E
|-----------------|-----------------|
|-----------------|-----------------|
|-------3-------3-|-------5-------3-|
|---0-3-------3---|-----6-------3---|
|-1---------5-----|---6-------5-----|
|---------3-------|-4-------6-------|


  E E E E S S S S E E   E E E E S S S S E E
|---------------------|---------------------|
|---------3-4---3-1---|---------6-4-6-4-3---|
|-----5-------------0-|-----5-------------3-|
|---5---5-------------|---5---5-------------|
|-3-------------------|-3-------------------|
|---------------------|---------------------|


  Gtr I
  W                     Q   E E +E  E E S S
|---------------------|-3---3-3-(3)-3-3-3-3-|
|---------------------|-4---4-4-(4)-4-4-4-4-|
|---------------------|-5---5-5-(5)-5-5-5-5-|
|---------------------|-5---5-5-(5)-5-5-5-5-|
|---------------------|-3---3-3-(3)-3-3-3-3-|
|---------------------|---------------------|
|
| Gtr II
| E E E E S S S S E E   E E E E  Q    E E
|---------------------|---------------------|
|---------3-4---3-1---|----------3----------|
|-----5-------------0-|-----5---------------|
|---5---5-------------|---5---5-------------|
|-3-------------------|-3---------------1---|
|---------------------|---------------3-----|


  Q   E E E E E E   E E E E E E E S S
|-3---3-3-3-3-3-3-|-1-1-1-1-1-1-1-1-1-|
|-4---4-4-4-4-4-4-|-1-1-1-1-3-3-3-3-3-|
|-5---5-5-5-5-5-5-|-1-1-1-1-3-3-3-3-3-|
|-5---5-5-5-5-5-5-|-3-3-3-3-3-3-3-3-3-|
|-3---3-3-3-3-3-3-|-3-3-3-3-1-1-1-1-1-|
|-----------------|-1-1-1-1-----------|
|
| E E E E E E E E   E E E E E E E E
|-----------------|-------------------|
|---------4-------|-------1-------3---|
|-----5-----5---5-|-----1-------3-----|
|---5---5-----5---|---3-------3-------|
|-3---------------|---------1---------|
|-----------------|-1-----------------|


  Q   E E E E E E   E E E E E E E E   E E E E E E E E   E E E E E E E E
|-1---1-1-1-1-1-1-|-3-3-3-3-3-3-3-3-|-4-4-4-4-3-3-3-3-|-1-1-1-1-3-3-3-3-|
|-1---1-1-1-1-1-1-|-4-4-4-4-4-4-4-4-|-4-4-4-4-4-4-4-4-|-1-1-1-1-4-4-4-4-|
|-1---1-1-1-1-1-1-|-5-5-5-5-5-5-5-5-|-5-5-5-5-3-3-3-3-|-1-1-1-1-5-5-5-5-|
|-3---3-3-3-3-3-3-|-5-5-5-5-5-5-5-5-|-6-6-6-6-5-5-5-5-|-3-3-3-3-5-5-5-5-|
|-3---3-3-3-3-3-3-|-3-3-3-3-3-3-3-3-|-6-6-6-6-6-6-6-6-|-3-3-3-3-3-3-3-3-|
|-1---1-1-1-1-1-1-|-----------------|-4-4-4-4-3-3-3-3-|-1-1-1-1---------|
|
| E E E E E E E E   E E E E E E E E   E E E E E E E E   E E E E E E E E
|-----------------|-----------------|-----------------|-----------------|
|---------3-------|---------4-------|-------4-------4-|-------1-------4-|
|-----3-----3---3-|-----5-----5---5-|-----5-------3---|-----1-------5---|
|---3---3-----3---|---5---5-----5---|---6-------5-----|---3-------5-----|
|-1---------------|-3---------------|-----------------|---------3-------|
|-----------------|-----------------|-4-------3-------|-1---------------|


  E E E E E E E E   E E E E E E E E   E E E E E E E E   E E E E E E E S S
|-3-3-3-3-3-3-3-3-|-3-3-3-3-3-3-3-3-|-3-3-3-3-3-3-3-3-|-1-1-1-1-1-1-1-1-1--|
|-4-4-4-4-3-3-3-3-|-4-4-4-4-4-4-4-4-|-4-4-4-4-4-4-4-4-|-1-1-1-1-3-3-3-3-3--|
|-5-5-5-5-4-4-4-4-|-5-5-5-5-5-5-5-5-|-5-5-5-5-5-5-5-5-|-1-1-1-1-3-3-3-3-3--|
|-5-5-5-5-5-5-5-5-|-5-5-5-5-5-5-5-5-|-5-5-5-5-5-5-5-5-|-3-3-3-3-3-3-3-3-3--|
|-3-3-3-3-5-5-5-5-|-3-3-3-3-3-3-3-3-|-3-3-3-3-3-3-3-3-|-3-3-3-3-1-1-1-1-1--|
|---------3-3-3-3-|-----------------|-----------------|-1-1-1-1------------|
|
| E E E E E E E E   E E E E E E E E   E E E E E E E E   E E E E E E E E
|-----------------|-----------------|-----------------|--------------------|
|-------4-------3-|---------4-------|---------4-------|-------1-------3----|
|-----5-------4---|-----5-----5---5-|-----5-----5---5-|-----1-------3------|
|---5-------5-----|---5---5-----5---|---5---5-----5---|---3-------3--------|
|-3---------------|-3---------------|-3---------------|---------1----------|
|---------3-------|-----------------|-----------------|-1------------------|


  Q   E E E E E E   E E E E E E E E   E E E E E E E E   E E E E E E E E
|-1---1-1-1-1-1-1-|-3-3-3-3-3-3-3-3-|-4-4-4-4-3-3-3-3-|-1-1-1-1-3-3-3-3-|
|-1---1-1-1-1-1-1-|-4-4-4-4-4-4-4-4-|-4-4-4-4-4-4-4-4-|-1-1-1-1-4-4-4-4-|
|-1---1-1-1-1-1-1-|-5-5-5-5-5-5-5-5-|-5-5-5-5-3-3-3-3-|-1-1-1-1-5-5-5-5-|
|-3---3-3-3-3-3-3-|-5-5-5-5-5-5-5-5-|-6-6-6-6-5-5-5-5-|-3-3-3-3-5-5-5-5-|
|-3---3-3-3-3-3-3-|-3-3-3-3-3-3-3-3-|-6-6-6-6-6-6-6-6-|-3-3-3-3-3-3-3-3-|
|-1---1-1-1-1-1-1-|-----------------|-4-4-4-4-3-3-3-3-|-1-1-1-1---------|
|
| E E E E E E E E   E E E E E E E E   E E E E E E E E   E E E E E E E E
|-----------------|-----------------|-----------------|-----------------|
|---------3-------|---------4-------|-------4-------4-|-------1-------4-|
|-----3-----3---3-|-----5-----5---5-|-----5-------3---|-----1-------5---|
|---3---3-----3---|---5---5-----5---|---6-------5-----|---3-------5-----|
|-1---------------|-3---------------|-----------------|---------3-------|
|-----------------|-----------------|-4-------3-------|-1---------------|


  E E E E E E E E   E E E E E E Q     E E E E E E E E   E E E E E E E E
|-3-3-3-3-3-3-3-3-|-3-3-3-3-3-3-3---|-3-3-3-3-3-3-3-3-|-----------------|
|-4-4-4-4-3-3-3-3-|-4-4-4-4-4-4-4---|-4-4-4-4-4-4-4-4-|-3-3-3-3-3-3-3-3-|
|-5-5-5-5-4-4-4-4-|-5-5-5-5-5-5-5---|-3-3-3-3-3-3-3-3-|-3-3-3-3-3-3-3-3-|
|-5-5-5-5-5-5-5-5-|-5-5-5-5-5-5-5---|-5-5-5-5-5-5-5-5-|-3-3-3-3-3-3-3-3-|
|-3-3-3-3-5-5-5-5-|-3-3-3-3-3-3-3---|-6-6-6-6-6-6-6-6-|-5-5-5-5-5-5-5-5-|
|---------3-3-3-3-|-----------------|-----------------|-6-6-6-6-6-6-6-6-|
|
| E E E E E E E E   E E E E E E E E   E E E E E E E E   E E E E E E E E
|-----------------|-----------------|-3-------3-6-5-3-|-1-------1-4-3-1-|
|-------4-------3-|---------4-------|---4---4---------|---3---3---------|
|-----5-------4---|-----5-----5---5-|-----3-----------|-----3-----------|
|---5-------5-----|---5---5-----5---|-----------------|-----------------|
|-3---------------|-3---------------|-----------------|-----------------|
|---------3-------|-----------------|-----------------|-----------------|


  E E E E E E E E    E  E  E E E    E   E E
|-3-3-3-3-3-3-3-3-|------------3----3---3-3-|
|-4-4-4-4-4-4-4-4-|--3--3--3-3-3----3---3-3-|
|-5-5-5-5-5-5-5-5-|--3--3--3-3-4----4---4-4-|
|-5-5-5-5-5-5-5-5-|--3--3--3-3-5----5---5-5-|
|-3-3-3-3-3-3-3-3-|--5--5--5-5-5----5---5-5-|
|-----------------|--6--6--6-6-3----3---3-3-|
|
| E E E E E E E E    E  E  E E S  S S S Q
|-3-------3-8-7-8-|-10-11-10-8-7--8-8-7-----|
|---4---4---------|--------------12-----8---|
|-----5-----------|-------------------------|
|-----------------|-------------------------|
|-----------------|-------------------------|
|-----------------|-------------------------|


  E E E E E  E  E E    E  E  E  E  E  E  E  E
|-3-3-3-3-3--3--3-3-|-------------------------|
|-4-4-4-4-4--4--4-4-|--3--3--3--3--3--3--3--3-|
|-3-3-3-3-3--3--3-3-|--3--3--3--3--3--3--3--3-|
|-5-5-5-5-5--5--5-5-|--3--3--3--3--3--3--3--3-|
|-6-6-6-6-6--6--6-6-|--5--5--5--5--5--5--5--5-|
|-------------------|--6--6--6--6--6--6--6--6-|
|
| E E E E E  E  E E    E  E  E  E  E  E  E  E
|-6-------6-11-10-8-|-10----------10-13-11-10-|
|---8---8-----------|----11----11-------------|
|-----8-------------|-------10----------------|
|-------------------|-------------------------|
|-------------------|-------------------------|
|-------------------|-------------------------|


  E  E  E E E E E E   E E E E  E E E E   E E E E E E E E   E E E E E E E E
|-3--3--3-3---------|-3-3-3-3--3-3-3-3-|-1-1-1-1-1-1-1-1-|-3-3-3-3-3-3-3-3-|
|-4--4--4-4-3-3-3-3-|-4-4-4-4--4-4-4-4-|-1-1-1-1-1-1-1-1-|-4-4-4-4-4-4-4-4-|
|-5--5--5-5-3-3-3-3-|-5-5-5-5--5-5-5-5-|-1-1-1-1-1-1-1-1-|-3-3-3-3-3-3-3-3-|
|-5--5--5-5-3-3-3-3-|-5-5-5-5--5-5-5-5-|-3-3-3-3-3-3-3-3-|-5-5-5-5-5-5-5-5-|
|-3--3--3-3-5-5-5-5-|-3-3-3-3--3-3-3-3-|-3-3-3-3-3-3-3-3-|-6-6-6-6-6-6-6-6-|
|-----------6-6-6-6-|------------------|-1-1-1-1-1-1-1-1-|-----------------|
|
| E  E  E E E E E E   E E E E  H         E E E E E E E E   E E E E E E E E
|-8-11-10-8---------|---8--------------|-----------------|-------------3-6-|
|-----------8-9-8-6-|-8---8------------|-----------------|-----------4-----|
|-------------------|-------8----------|---------------5-|-3-------3-------|
|-------------------|---------10-------|---------3-5-6---|---5---5---------|
|-------------------|------------------|-------3---------|-----6-----------|
|-------------------|------------------|-1-3-4-----------|-----------------|


  E   E   E E E E E E   E E E E E E E E   E E E E E E E E   E E E E E E E E
|-------------3-3-3-3-|-3-3-3-3-3-3-3-3-|-1-1-1-1-1-1-1-1-|-3-3-3-3-3-3-3-3-|
|-3---3---3-3-3-3-3-3-|-3-3-3-3-3-3-3-3-|-1-1-1-1-1-1-1-1-|-4-4-4-4-4-4-4-4-|
|-3---3---3-3-4-4-4-4-|-4-4-4-4-4-4-4-4-|-1-1-1-1-1-1-1-1-|-3-3-3-3-3-3-3-3-|
|-3---3---3-3-5-5-5-5-|-5-5-5-5-5-5-5-5-|-3-3-3-3-3-3-3-3-|-5-5-5-5-5-5-5-5-|
|-5---5---5-5-5-5-5-5-|-5-5-5-5-5-5-5-5-|-3-3-3-3-3-3-3-3-|-6-6-6-6-6-6-6-6-|
|-6---6---6-6-3-3-3-3-|-3-3-3-3-3-3-3-3-|-1-1-1-1-1-1-1-1-|-----------------|
|
| S S S S E E E E E E   E E E E H         E E E E E E E E   E E E E E E E E
|-4-6-4-3-1-----------|-----------------|-----------------|-------------3-6-|
|-----------4-3-1-----|-----------------|-----------------|-----------4-----|
|-----------------3-1-|-0---------------|---------------5-|-3-------3-------|
|---------------------|---3-1-0---------|---------3-5-6---|---5---5---------|
|---------------------|---------3-------|-------3---------|-----6-----------|
|---------------------|-----------------|-1-3-4-----------|-----------------|


   E E     E  E  E  E  E  E    E  E     E  E  E E E E
|----------------3--3--3--3-|--3--3-----3--3--3-3-3-3-|
|--3-3-----3--3--3--3--3--3-|--3--3-----3--3--3-3-3-3-|
|--3-3-----3--3--4--4--4--4-|--4--4-----4--4--4-4-4-4-|
|--3-3-----3--3--5--5--5--5-|--5--5-----5--5--5-5-5-5-|
|--5-5-----5--5--5--5--5--5-|--5--5-----5--5--5-5-5-5-|
|--6-6-----6--6--3--3--3--3-|--3--3-----3--3--3-3-3-3-|
|
|  E S  S  E  E  E  E  E  E    E  S  S  E  E  Q   E E
|-10-8-10-------------------|-------------------------|
|------13-11----11----------|-------------------------|
|------------10----10-------|-------------------------|
|---------------------12----|-13-12-13----------------|
|------------------------13-|-------17-15-13-15-----1-|
|---------------------------|---------------------3---|


  E E E E S S S S E E   E E E E S S S S E E
|---------------------|---------------------|
|---------3-4---3-1---|---------6-4-6-------|
|-----5-------------0-|-----5---------7-7---|
|---5---5-------------|---5---5-----------8-|
|-3-------------------|-3-------------------|
|---------------------|---------------------|
|
| E E E E S S S S E E   E E E E E   E   E E
|---------------------|---------3---4---3-1-|
|---------3-4---3-1---|---1-4---------------|
|-----5-------------0-|-------5-------------|
|---5---5-------------|---------------------|
|-3-------------------|-3-------------------|
|---------------------|---------------------|


  E  E E    E E E E E   S S S S E E Q  E E
|---------------------|--------------------|
|-------------8-9-8-6-|-4-6-4-3-1---1------|
|------8--------------|-----------3--------|
|---10-----10---------|--------------------|
|---------------------|------------------1-|
|-8-------------------|----------------3---|
|
| E  E S S  E E E E E   E   E   E E Q  E E
|---------------------|--------------------|
|----4-3-4--3-1---1---|--------------------|
|---------------3---3-|-1---0---0----------|
|---------------------|-----------3-5------|
|---------------------|------------------1-|
|---------------------|----------------3---|


  W                     W
|---------------------|------------------|
|---------------------|------------------|
|---------------------|------------------|
|---------------------|------------------|
|---------------------|------------------|
|---------------------|------------------|
|
| E E E E S S S S E E   E E E E E E E E
|---------------------|---------1--------|
|---------3-4---3-1---|-----------3------|
|-----5-------------0-|-------3-----3----|
|---5---5-------------|---0-3---------3--|
|-3-------------------|-1----------------|
|---------------------|------------------|


  Gtr II
  E E E E S S S S E E   E E E E E E E E
|---------------------|---------1-------|
|---------3-4---3-1---|-----------3-----|
|-----5-------------0-|-------3-----3---|
|---5---5-------------|---0-3---------3-|
|-3-------------------|-1---------------|
|---------------------|-----------------|


  E E E E S S S S E E   E E E E E E E E
|---------------------|-----------------|
|---------3-4---3-1---|-----------------|
|-----5-------------0-|-------3-------3-|
|---5---5-------------|---0-3-------3---|
|-3-------------------|-1---------5-----|
|---------------------|---------3-------|


  E E E E E E E E   E E E E S S S S E E   E E E E S S S S E E
|-----------------|---------------------|---------------------|
|-----------------|---------3-4---3-1---|---------6-4-6-4-3---|
|-------5-------3-|-----5-------------0-|-----5-------------3-|
|-----6-------3---|---5---5-------------|---5---5-------------|
|---6-------5-----|-3-------------------|-3-------------------|
|-4-------6-------|---------------------|---------------------|


  E E E E S S S S E E   E E E E E E E E
|---------------------|---------1-------|
|---------3-4---3-1---|-----------3-----|
|-----5-------------0-|-------3-----3---|
|---5---5-------------|---0-3---------3-|
|-3-------------------|-1---------------|
|---------------------|-----------------|


  E E E E S S S S E E   E E E E E E E E
|---------------------|---------1-------|
|---------3-4---3-1---|-----------3-----|
|-----5-------------0-|-------3-----3---|
|---5---5-------------|---0-3---------3-|
|-3-------------------|-1---------------|
|---------------------|-----------------|


  E E E E S S S S E E   E E E E E E E E
|---------------------|-----------------|
|---------3-4-3---1---|-----------------|
|-----5-------------0-|-------3-------3-|
|---5---5-------------|---0-3-------3---|
|-3-------------------|-1---------5-----|
|---------------------|---------3-------|


  E E E E E E E E   E E E E S S S S E E
|-----------------|---------------------|
|-----------------|---------3-4-3---1---|
|-------5-------3-|-----5-------------0-|
|-----6-------3---|---5---5-------------|
|---6-------5-----|-3-------------------|
|-4-------6-------|---------------------|


  Gtr I
  W                     W
|---------------------|---------------------|
|---------------------|---------------------|
|---------------------|---------------------|
|---------------------|---------------------|
|---------------------|---------------------|
|---------------------|---------------------|
|
| Gtr II
| E E E E S S S S E E   E E E E S S S S E E
|---------------------|---------------------|
|---------6-4-6-4-3---|---------3-4-3---1---|
|-----5-------------3-|-----5-------------0-|
|---5---5-------------|---5---5-------------|
|-3-------------------|-3-------------------|
|---------------------|---------------------|


  Q   E E +E  E E S S   Q   E E E E E E
|-3---3-3-(3)-3-3-3-3-|-3---3-3-3-3-3-3--|
|-4---4-4-(4)-4-4-4-4-|-4---4-4-4-4-4-4--|
|-5---5-5-(5)-5-5-5-5-|-5---5-5-5-5-5-5--|
|-5---5-5-(5)-5-5-5-5-|-5---5-5-5-5-5-5--|
|-3---3-3-(3)-3-3-3-3-|-3---3-3-3-3-3-3--|
|---------------------|------------------|
|
| E E E E  Q    E E     E E E E E E E E
|---------------------|------------------|
|----------3----------|---------4--------|
|-----5---------------|-----5-----5---5--|
|---5---5-------------|---5---5-----5----|
|-3---------------1---|-3----------------|
|---------------3-----|------------------|


  E E E E E E E S S   Q   E E E E E E   E E E E E E E E   E E E E E E E E
|-1-1-1-1-1-1-1-1-1-|-1---1-1-1-1-1-1-|-3-3-3-3-3-3-3-3-|-4-4-4-4-3-3-3-3--|
|-1-1-1-1-3-3-3-3-3-|-1---1-1-1-1-1-1-|-4-4-4-4-4-4-4-4-|-4-4-4-4-4-4-4-4--|
|-1-1-1-1-3-3-3-3-3-|-1---1-1-1-1-1-1-|-5-5-5-5-5-5-5-5-|-5-5-5-5-3-3-3-3--|
|-3-3-3-3-3-3-3-3-3-|-3---3-3-3-3-3-3-|-5-5-5-5-5-5-5-5-|-6-6-6-6-5-5-5-5--|
|-3-3-3-3-1-1-1-1-1-|-3---3-3-3-3-3-3-|-3-3-3-3-3-3-3-3-|-6-6-6-6-6-6-6-6--|
|-1-1-1-1-----------|-1---1-1-1-1-1-1-|-----------------|-4-4-4-4-3-3-3-3--|
|
| E E E E E E E E     E E E E E E E E   E E E E E E E E   E E E E E E E E
|-------------------|-----------------|-----------------|------------------|
|-------1-------3---|---------3-------|---------4-------|-------4-------4--|
|-----1-------3-----|-----3-----3---3-|-----5-----5---5-|-----5-------3----|
|---3-------3-------|---3---3-----3---|---5---5-----5---|---6-------5------|
|---------1---------|-1---------------|-3---------------|------------------|
|-1-----------------|-----------------|-----------------|-4-------3--------|


  Gtrs I, II
  E E E E E E E E   E E E E E E E E   E E E E E E E E   E E E E E E E E
|-----------------|-----------------|-----------------|-----------------|
|-------1-------4-|-------4-------3-|---------4-------|---------4-------|
|-----1-------5---|-----5-------4---|-----5-----5---5-|-----5-----5---5-|
|---3-------5-----|---5-------5-----|---5---5-----5---|---5---5-----5---|
|---------3-------|-3---------------|-3---------------|-3---------------|
|-1---------------|---------3-------|-----------------|-----------------|


  Gtr I
  E E E E E E E S S   Q   E E E E E E   E E E E E E E E   E E E E E E E E
|-1-1-1-1-1-1-1-1-1-|-1---1-1-1-1-1-1-|-3-3-3-3-3-3-3-3-|-4-4-4-4-3-3-3-3--|
|-1-1-1-1-3-3-3-3-3-|-1---1-1-1-1-1-1-|-4-4-4-4-4-4-4-4-|-4-4-4-4-4-4-4-4--|
|-1-1-1-1-3-3-3-3-3-|-1---1-1-1-1-1-1-|-5-5-5-5-5-5-5-5-|-5-5-5-5-3-3-3-3--|
|-3-3-3-3-3-3-3-3-3-|-3---3-3-3-3-3-3-|-5-5-5-5-5-5-5-5-|-6-6-6-6-5-5-5-5--|
|-3-3-3-3-1-1-1-1-1-|-3---3-3-3-3-3-3-|-3-3-3-3-3-3-3-3-|-6-6-6-6-6-6-6-6--|
|-1-1-1-1-----------|-1---1-1-1-1-1-1-|-----------------|-4-4-4-4-3-3-3-3--|
|
| Gtr II
| E E E E E E E E     E E E E E E E E   E E E E E E E E   E E E E E E E E
|-------------------|-----------------|-----------------|------------------|
|-------1-------3---|---------3-------|---------4-------|-------4-------4--|
|-----1-------3-----|-----3-----3---3-|-----5-----5---5-|-----5-------3----|
|---3-------3-------|---3---3-----3---|---5---5-----5---|---6-------5------|
|---------1---------|-1---------------|-3---------------|------------------|
|-1-----------------|-----------------|-----------------|-4-------3--------|


  Gtrs I, II
  E E E E E E E E   E E E E E E E E   E E E E E E E E   E E E E E E E E
|-----------------|-----------------|-----------------|-----------------|
|-------1-------4-|-------4-------3-|---------4-------|---------4-------|
|-----1-------5---|-----5-------4---|-----5-----5---5-|-----5-----5---5-|
|---3-------5-----|---5-------5-----|---5---5-----5---|---5---5-----5---|
|---------3-------|-3---------------|-3---------------|-3---------------|
|-1---------------|---------3-------|-----------------|-----------------|


  E E E E E E E E   E E E E E E E E   E E E E E E E E   E E E E E E E E
|-----------------|-----------------|-----------------|-----------------|
|-------1-------3-|---------3-------|---------4-------|-------4-------4-|
|-----1-------3---|-----3-----3---3-|-----5-----5---5-|-----5-------3---|
|---3-------3-----|---3---3-----3---|---5---5-----5---|---6-------5-----|
|---------1-------|-1---------------|-3---------------|-----------------|
|-1---------------|-----------------|-----------------|-4-------3-------|


  E E E E E E E E   E E E E E E E E   E E E E E E E E   E E E E E E E E
|-----------------|-----------------|-----------------|-----------------|
|-------1-------4-|-------4-------3-|---------4-------|---------4-------|
|-----1-------5---|-----5-------4---|-----5-----5---5-|-----5-----5---5-|
|---3-------5-----|---5-------5-----|---5---5-----5---|---5---5-----5---|
|---------3-------|-3---------------|-3---------------|-3---------------|
|-1---------------|---------3-------|-----------------|-----------------|


  E E E E E E E E   E E E E E E E E   E E E E E E E E   E E E E E E E E
|-----------------|-----------------|-----------------|-----------------|
|-------1-------3-|---------3-------|---------4-------|-------4-------4-|
|-----1-------3---|-----3-----3---3-|-----5-----5---5-|-----5-------3---|
|---3-------3-----|---3---3-----3---|---5---5-----5---|---6-------5-----|
|---------1-------|-1---------------|-3---------------|-----------------|
|-1---------------|-----------------|-----------------|-4-------3-------|


  E E E E E E E E   E E E E E E E E   E E E E E E E E   E E E E E E E E
|-----------------|-----------------|-----------------|-----------------|
|-------1-------4-|-------4-------3-|---------4-------|---------4-------|
|-----1-------5---|-----5-------4---|-----5-----5---5-|-----5-----5---5-|
|---3-------5-----|---5-------5-----|---5---5-----5---|---5---5-----5---|
|---------3-------|-3---------------|-3---------------|-3---------------|
|-1---------------|---------3-------|-----------------|-----------------|


  Gtr I
  E E E E E E E S S   Q   E E E E E E   E E E E E E E E   E E E E E E E E
|-1-1-1-1-1-1-1-1-1-|-1---1-1-1-1-1-1-|-3-3-3-3-3-3-3-3-|-4-4-4-4-3-3-3-3--|
|-1-1-1-1-3-3-3-3-3-|-1---1-1-1-1-1-1-|-4-4-4-4-4-4-4-4-|-4-4-4-4-4-4-4-4--|
|-1-1-1-1-3-3-3-3-3-|-1---1-1-1-1-1-1-|-5-5-5-5-5-5-5-5-|-5-5-5-5-3-3-3-3--|
|-3-3-3-3-3-3-3-3-3-|-3---3-3-3-3-3-3-|-5-5-5-5-5-5-5-5-|-6-6-6-6-5-5-5-5--|
|-3-3-3-3-1-1-1-1-1-|-3---3-3-3-3-3-3-|-3-3-3-3-3-3-3-3-|-6-6-6-6-6-6-6-6--|
|-1-1-1-1-----------|-1---1-1-1-1-1-1-|-----------------|-4-4-4-4-3-3-3-3--|
|
| Gtr II
| E E E E E E E E     E E E E E E E E   E E E E E E E E   E E E E E E E E
|-------------------|-----------------|-----------------|------------------|
|-------1-------3---|---------3-------|---------4-------|-------4-------4--|
|-----1-------3-----|-----3-----3---3-|-----5-----5---5-|-----5-------3----|
|---3-------3-------|---3---3-----3---|---5---5-----5---|---6-------5------|
|---------1---------|-1---------------|-3---------------|------------------|
|-1-----------------|-----------------|-----------------|-4-------3--------|


  Gtrs I, II
  E E E E E E E E   E E E E E E E E   E E E E E E E E   E E E E E E E E
|-----------------|-----------------|-----------------|-----------------|
|-------1-------4-|-------4-------3-|---------4-------|---------4-------|
|-----1-------5---|-----5-------4---|-----5-----5---5-|-----5-----5---5-|
|---3-------5-----|---5-------5-----|---5---5-----5---|---5---5-----5---|
|---------3-------|-3---------------|-3---------------|-3---------------|
|-1---------------|---------3-------|-----------------|-----------------|


  Gtr I
  E E E E E E E S S   Q   E E E E E E   E E E E E E E E   E E E E E E E E
|-1-1-1-1-1-1-1-1-1-|-1---1-1-1-1-1-1-|-3-3-3-3-3-3-3-3-|-4-4-4-4-3-3-3-3--|
|-1-1-1-1-3-3-3-3-3-|-1---1-1-1-1-1-1-|-4-4-4-4-4-4-4-4-|-4-4-4-4-4-4-4-4--|
|-1-1-1-1-3-3-3-3-3-|-1---1-1-1-1-1-1-|-5-5-5-5-5-5-5-5-|-5-5-5-5-3-3-3-3--|
|-3-3-3-3-3-3-3-3-3-|-3---3-3-3-3-3-3-|-5-5-5-5-5-5-5-5-|-6-6-6-6-5-5-5-5--|
|-3-3-3-3-1-1-1-1-1-|-3---3-3-3-3-3-3-|-3-3-3-3-3-3-3-3-|-6-6-6-6-6-6-6-6--|
|-1-1-1-1-----------|-1---1-1-1-1-1-1-|-----------------|-4-4-4-4-3-3-3-3--|
|
| Gtr II
| E E E E E E E E     E E E E E E E E   E E E E E E E E   E E E E E E E E
|-------------------|-----------------|-----------------|------------------|
|-------1-------3---|---------3-------|---------4-------|-------4-------4--|
|-----1-------3-----|-----3-----3---3-|-----5-----5---5-|-----5-------3----|
|---3-------3-------|---3---3-----3---|---5---5-----5---|---6-------5------|
|---------1---------|-1---------------|-3---------------|------------------|
|-1-----------------|-----------------|-----------------|-4-------3--------|


  Gtrs I, II
  E E E E E E E E   E E E E E E E E   E E E E E E E E   E E E E E E E E
|-----------------|-----------------|-----------------|-----------------|
|-------1-------4-|-------4-------3-|---------4-------|---------4-------|
|-----1-------5---|-----5-------4---|-----5-----5---5-|-----5-----5---5-|
|---3-------5-----|---5-------5-----|---5---5-----5---|---5---5-----5---|
|---------3-------|-3---------------|-3---------------|-3---------------|
|-1---------------|---------3-------|-----------------|-----------------|


  Gtr I
  E E E E E E E S S   Q   E E E E E E   E E E E E E E E   E E E E E E E E
|-1-1-1-1-1-1-1-1-1-|-1---1-1-1-1-1-1-|-3-3-3-3-3-3-3-3-|-4-4-4-4-3-3-3-3--|
|-1-1-1-1-3-3-3-3-3-|-1---1-1-1-1-1-1-|-4-4-4-4-4-4-4-4-|-4-4-4-4-4-4-4-4--|
|-1-1-1-1-3-3-3-3-3-|-1---1-1-1-1-1-1-|-5-5-5-5-5-5-5-5-|-5-5-5-5-3-3-3-3--|
|-3-3-3-3-3-3-3-3-3-|-3---3-3-3-3-3-3-|-5-5-5-5-5-5-5-5-|-6-6-6-6-5-5-5-5--|
|-3-3-3-3-1-1-1-1-1-|-3---3-3-3-3-3-3-|-3-3-3-3-3-3-3-3-|-6-6-6-6-6-6-6-6--|
|-1-1-1-1-----------|-1---1-1-1-1-1-1-|-----------------|-4-4-4-4-3-3-3-3--|
|
| Gtr II
| E E E E E E E E     E E E E E E E E   E E E E E E E E   E E E E E E E E
|-------------------|-----------------|-----------------|------------------|
|-------1-------3---|---------3-------|---------4-------|-------4-------4--|
|-----1-------3-----|-----3-----3---3-|-----5-----5---5-|-----5-------3----|
|---3-------3-------|---3---3-----3---|---5---5-----5---|---6-------5------|
|---------1---------|-1---------------|-3---------------|------------------|
|-1-----------------|-----------------|-----------------|-4-------3--------|


  Gtrs I, II
  E E E E E E E E   E E E E E E E E   E E E E E E E E   E E E E E E E E
|-----------------|-----------------|-----------------|-----------------|
|-------1-------4-|-------4-------3-|---------4-------|---------4-------|
|-----1-------5---|-----5-------4---|-----5-----5---5-|-----5-----5---5-|
|---3-------5-----|---5-------5-----|---5---5-----5---|---5---5-----5---|
|---------3-------|-3---------------|-3---------------|-3---------------|
|-1---------------|---------3-------|-----------------|-----------------|


  Gtr I
  E E E E E E E S S   Q   E E E E E E   E E E E E E E E   E E E E E E E E
|-1-1-1-1-1-1-1-1-1-|-1---1-1-1-1-1-1-|-3-3-3-3-3-3-3-3-|-4-4-4-4-3-3-3-3--|
|-1-1-1-1-3-3-3-3-3-|-1---1-1-1-1-1-1-|-4-4-4-4-4-4-4-4-|-4-4-4-4-4-4-4-4--|
|-1-1-1-1-3-3-3-3-3-|-1---1-1-1-1-1-1-|-5-5-5-5-5-5-5-5-|-5-5-5-5-3-3-3-3--|
|-3-3-3-3-3-3-3-3-3-|-3---3-3-3-3-3-3-|-5-5-5-5-5-5-5-5-|-6-6-6-6-5-5-5-5--|
|-3-3-3-3-1-1-1-1-1-|-3---3-3-3-3-3-3-|-3-3-3-3-3-3-3-3-|-6-6-6-6-6-6-6-6--|
|-1-1-1-1-----------|-1---1-1-1-1-1-1-|-----------------|-4-4-4-4-3-3-3-3--|
|
| Gtr II
| E E E E E E E E     E E E E E E E E   E E E E E E E E   E E E E E E E E
|-------------------|-----------------|-----------------|------------------|
|-------1-------3---|---------3-------|---------4-------|-------4-------4--|
|-----1-------3-----|-----3-----3---3-|-----5-----5---5-|-----5-------3----|
|---3-------3-------|---3---3-----3---|---5---5-----5---|---6-------5------|
|---------1---------|-1---------------|-3---------------|------------------|
|-1-----------------|-----------------|-----------------|-4-------3--------|


  E E E E E E E E   E E E E E E E E   E E E E E E E E   E E E E E E E E
|-1-1-1-1-3-3-3-3-|-3-3-3-3-3-3-3-3-|-1-1-1-1-3-3-3-3-|---------3-3-3-3-|
|-1-1-1-1-4-4-4-4-|-4-4-4-4-3-3-3-3-|-1-1-1-1-4-4-4-4-|-1-1-1-1-3-3-3-3-|
|-1-1-1-1-5-5-5-5-|-5-5-5-5-4-4-4-4-|-1-1-1-1-3-3-3-3-|-1-1-1-1-4-4-4-4-|
|-3-3-3-3-5-5-5-5-|-5-5-5-5-5-5-5-5-|-3-3-3-3-5-5-5-5-|-1-1-1-1-5-5-5-5-|
|-3-3-3-3-3-3-3-3-|-3-3-3-3-5-5-5-5-|-3-3-3-3-6-6-6-6-|---------5-5-5-5-|
|-1-1-1-1---------|---------3-3-3-3-|-1-1-1-1---------|-1-1-1-1-3-3-3-3-|
|
| E E E E E E E E   E E E E E E E E   E E E E E E E E   E E E E E E E E
|-----------------|-----------------|-----------------|-----------------|
|-------1-------4-|-------4-------3-|-------1-------4-|-------4-------3-|
|-----1-------5---|-----5-------4---|-----1-------3---|-----5-------4---|
|---3-------5-----|---5-------5-----|---3-------5-----|---6-------5-----|
|---------3-------|-3---------------|---------3-------|-----------------|
|-1---------------|---------3-------|-1---------------|-4-------3-------|


  E E E S S H         Q  Q  Q  Q
|-3-3-3-3-3-3-------|-3--3--3-----*|
|-4-4-4-4-4-4-------|-4--3--4-----*|
|-5-5-5-5-5-5-------|-5--4--5-----*|
|-5-5-5-5-5-5-------|-5--5--5-----*|
|-3-3-3-3-3-3-------|-3--5--3-----*|
|-------------------|----3--------*|
|
| E E E E   E E E E   Q  Q  Q  Q
|-------------------|----3--3-----*|
|-------------------|----3--4-----*|
|-----5-----4-------|----4--5-----*|
|---5---5-----5---5-|----5--5-----*|
|-3-------------5---|----5--3-----*|
|-------------------|----3--------*|




--------------------------------------------------------------------------------


Duration Legend
---------------
W - whole; H - half; Q - quarter; E - 8th; S - 16th; T - 32nd; X - 64th; a - acciaccatura
+ - note tied to previous; . - note dotted; .. - note double dotted
Uncapitalized letters represent notes that are staccato (1/2 duration)
Irregular groupings are notated above the duration line
Duration letters will always appear directly above the note/fret number it represents the
duration for.  Duration letters with no fret number below them represent rests.  Multi-
bar rests are notated in the form Wxn, where n is the number of bars to rest for.  Low
melody durations appear below the staff

Tablature Legend
----------------
 h   - hammer-on
 p   - pull-off
 b   - bend
 pb  - pre-bend
 r   - bend release (if no number after the r, then release immediately)
 /\  - slide into or out of (from/to "nowhere")
 s   - legato slide
 S   - shift slide
 - natural harmonic
[n]  - artificial harmonic
n(n) - tapped harmonic
 ~   - vibrato
 tr  - trill
 T   - tap
 TP  - trem. picking
 PM  - palm muting
\n/  - tremolo bar dip; n = amount to dip
 \n  - tremolo bar down
 n/  - tremolo bar up
/n\  - tremolo bar inverted dip
 =   - hold bend; also acts as connecting device for hammers/pulls
 <> - volume swell (louder/softer)
 x   - on rhythm slash represents muted slash
 o   - on rhythm slash represents single note slash

Misc Legend
-----------
 |  - bar
||  - double bar
||o - repeat start
o|| - repeat end
*|  - double bar (ending)
 :  - bar (freetime)
 $  - Segno
 &  - Coda
Tempo markers -  = BPM(8/16=s8/s16), where s8 = swing 8ths, s16 = swing 16ths

comments
We did not receive enough feedback on this tab! Please rate:
print report bad tab
1 2 3 4 5
1 comment total.
0 reply
Thyrai wrote on May 22 2010, 08:13 pm

Awesome tab

I want to post or [tab]
guest
You may want to rate the tab now too:
select rating
Please do not post tabs as comments. Select "correction" instead!