Oops, an error
Loading. Please wait.

If The Good Lord Had Intended Us To Walk He Wouldnt Have Invented Roller-Skates Tab

ver1
ver1

Whole song

Interactive

More versions @911Tabs.com
1,956 views 1 this week
no commentswrite comment
1 2 3 4 5
excellent!
x 3
Autoscroll
+/-
esc
set tempo
stop
Contributor
Difficulty
Tuning
intermediate
D A D G B E
Hey! There's an official Ultimate Guitar app which is ideal
for learning songs when you're away from computer. Get the app
WARNING: You are trying to view
                                    content from Ultimate-Guitar.com
                                    in an unauthorized application,
                                    which is prohibited.

                                    Please use an official Ultimate
                                    Guitar Tabs application for iPhone,
                                    iPad or Android to access legitimate
                                    chords, guitar, bass, and drum tabs
                                    from Ultimate-Guitar.com database.

                                    Type "ultimate guitar tabs" in Apple
                                    App Store's or Android Market's
                                    search to find the application.
----------------------------------------------------------------------------------------------
 If The Good Lord Had Intended Us To Walk He Wouldn't Have Invented Roller-Skates - Blakfish
----------------------------------------------------------------------------------------------

 Tabbed by:dvanwyk
 Email:dustinvanwyk@yahoo.com

 Tuning:Drop D

 Guitar 1

e|-----------|
B|8--8~------|
G|7--7~------|
D|8--8~------|
A|-----------|
D|-----------|


 x2
e|------------------------------------------|
B|------------------------------------------|
G|88-88-55-55-7-7---88-88-----------10-12---|
D|xx-xx-xx-xx-x-x---xx-xx-55-55-55--x--x----|
A|66-66-33-33-5-5---66-66-xx-xx-xx--8--10---|
D|------------------------55-55-55----------|

e|---------------------------------|
B|---------------------------------|
G|8-5-5-55-5-7-7--8--10--(Pause)---|
D|x-x-x-33-3-5-5--x--x-------------|
A|6-3-3-xx-x-x-x--6--8-------------|
D|------33-3/5-5-------------------|

e|----------------------------------------------------|
B|-------------------------15t-11---------------------|
G|8-5-5-55-5-7-7--8--10-----------15t-10--------------|
D|x-x-x-33-3-5-5--x--x---8---------------15t/17-------|
A|6-3-3-xx-x-x-x--6--8--------------------------17t---|
D|------33-3/5-5--------------------------------------|

e|---------------------------------|
B|---------------------------------|
G|8-5-5-55-5-7-7--8--10--(Pause)---|
D|x-x-x-33-3-5-5--x--x-------------|
A|6-3-3-xx-x-x-x--6--8-------------|
D|------33-3/5-5-------------------|

e|---------------|
B|---------------|
G|3--8--10~------|
D|1--x--x--------|
A|x--6--8~-------|
D|1--------------|

 Pause


  x8 (0.35)
e|-------------------------|
B|----------4------10------|
G|----7---------10---------|
D|--8-----5---8------------|
A|6-----3------------------|
D|-------------------------|

 x4
e|---------------------|
B|888--666--111111-----|
G|777--777--121212-----|
D|888--555--101010-----|
A|666------------------|
D|---------------------|

 x2
e|------------------------------------------|
B|------------------------------------------|
G|------------77-77-9-9--9-9--33-33-33-33---|
D|------------88-88-1010-1010-55-55-55-55---|
A|66-66-66-66-xx-xx-x-x--x-x--xx-xx-xx-xx---|
D|66-66-66-66-88-88-1010-1010-55-55-55-55---|


e|----------------------|
B|----------------------|
G|1313-1313-1313-1313---|
D|x-x--x--x-x-x--x-x----|
A|1111-1111-1111-1111---|
D|----------------------|

 x2
e|----------------|
B|1313-1313-1313--|
G|1212-1212-1212--|
D|1313-1313-1313--|
A|1111-1111-1111--|
D|----------------|

  x2
e|------------------------------------------|
B|------------------------------------------|
G|88-88-55-55-7-7---88-88-----------10-12---|
D|xx-xx-xx-xx-x-x---xx-xx-55-55-55--x--x----|
A|66-66-33-33-5-5---66-66-xx-xx-xx--8--10---|
D|------------------------55-55-55----------|


 x5
e|----------------------------------------------------|
B|----4-------4-----4-------4------3-----3-----3---3--|
G|--7-7-----7-7---7-7-----7-7----0-0---0-0---0-0---0--|
D|--------8-------------8-----------------------------|
A|6-----6-------6-----6--------------------5-----5----|
D|-----------------------------5-----5----------------|


e|--------------|
B|--------------|
G|8\----10-8----|
D|x-----x--x----|
A|6\----8--6----|
D|--------------|

e|------------------------------------------------------------|
B|1010----1010----1010----10-10----10-10----10-10----10---10--|
G|1313----1313----1313----13-13----13-13----13-13----13---13--|
D|------------------------------------------------------------|
A|------------------------------------------------------------|
D|-----xx------xx------xx-------xx-------xx-------------------|

x2
e|------------------------------------------|
B|------------------------------------------|
G|------------77-77-9-9--9-9--33-33-33-33---|
D|------------88-88-1010-1010-55-55-55-55---|
A|66-66-66-66-xx-xx-x-x--x-x--xx-xx-xx-xx---|
D|66-66-66-66-88-88-1010-1010-55-55-55-55---|

e|----------------------|
B|----------------------|
G|1313-1313-1313-1313---|
D|x-x--x--x-x-x--x-x----|
A|1111-1111-1111-1111---|
D|----------------------|

x2
e|----------------|
B|1313-1313-1313--|
G|1212-1212-1212--|
D|1313-1313-1313--|
A|1111-1111-1111--|
D|----------------|

 x2
e|------------------------------------------|
B|------------------------------------------|
G|88-88-55-55-7-7---88-88-----------10-12---|
D|xx-xx-xx-xx-x-x---xx-xx-55-55-55--x--x----|
A|66-66-33-33-5-5---66-66-xx-xx-xx--8--10---|
D|------------------------55-55-55----------|

e|---------------------------------|
B|---------------------------------|
G|8-5-5-55-5-7-7--8--10--(Pause)---|
D|x-x-x-33-3-5-5--x--x-------------|
A|6-3-3-xx-x-x-x--6--8-------------|
D|------33-3/5-5-------------------|

e|----------------------------------------------------|
B|-------------------------15t-11---------------------|
G|8-5-5-55-5-7-7--8--10-----------15t-10--------------|
D|x-x-x-33-3-5-5--x--x---8---------------15t/17-------|
A|6-3-3-xx-x-x-x--6--8--------------------------17t---|
D|------33-3/5-5--------------------------------------|

e|---------------------------------|
B|---------------------------------|
G|8-5-5-55-5-7-7--8--10--(Pause)---|
D|x-x-x-33-3-5-5--x--x-------------|
A|6-3-3-xx-x-x-x--6--8-------------|
D|------33-3/5-5-------------------|

e|---------------|
B|---------------|
G|3--8--10~------|
D|1--x--x--------|
A|x--6--8~-------|
D|1--------------|

 Pause

 x1 (3.18)
e|-------------------------|
B|----------4------10------|
G|----7---------10---------|
D|--8-----5---8------------|
A|6-----3------------------|
D|-------------------------|


==================================================================================


 Guitar 2



e|--------------|
B|--------------|
G|7--7~---------|
D|8--8~---------|
A|6--6~---------|
D|--------------|

 x2
e|----------------------------66---------|
B|----------------------66-66-66---------|
G|88-88-55-55-3--3---88-55-55-55-10-12---|
D|xx-xx-xx-xx-3--3---xx-xx-xx-xx-x--x----|
A|66-66-33-33-1--1---66-xx-xx-xx-8--10---|
D|----------------------55-55-55---------|

e|------------------------------------------|
B|8-1010-10/-11-11---8-8/-10----------------|
G|8-1010-10/-12-12---8-8/-10----10----------|
D|x-x-x--x---x--x----x-x--x---8----8-10p8---|
A|6-8-8--8/--10-10---6-6/-8-----------------|
D|------------------------------------------|

e|------------------------------------------------------|
B|8-1010-10/-11-11---8-8/-10----------------------------|
G|8-1010-10/-12-12---8-8/-10----10----------------------|
D|x-x-x--x---x--x----x-x--x---8----8-10p8---------------|
A|6-8-8--8/--10-10---6-6/-8---------------8h10p8--------|
D|-----------------------------------------------12p10--|

e|------------------------------------------|
B|8-1010-10/-11-11---8-8/-10----------------|
G|8-1010-10/-12-12---8-8/-10----10----------|
D|x-x-x--x---x--x----x-x--x---8----8-10p8---|
A|6-8-8--8/--10-10---6-6/-8-----------------|
D|------------------------------------------|


e|-----------------|
B|8--11--10~-------|
G|8--12--10~-------|
D|x--x---x---------|
A|6--10--8~--------|
D|-----------------|

 x9
e|------------------------|
B|------------------------|
G|----7-----3------10-----|
D|--8-----5------8--------|
A|6-----3-----10----------|
D|------------------------|

 x2
e|------------------12/13-10--------------------------|
B|888--686------11------------888--686------11-11/13--|
G|777--777---10---------------777--777---10-----------|
D|888--888-8------------------888--888-8--------------|
A|----------------------------------------------------|
D|----------------------------------------------------|

 x2
e|-------------------------------------------------|
B|1313-1313-1313-1313--33-33--44-44--33-33-33-33---|
G|1212-1212-1212-1212--33-33--55-55--33-33-33-33---|
D|1313-1313-1313-1313--xx-xx--xx-xx--xx-xx-xx-xx---|
A|1111-1111-1111-1111--11-11--33-33--11-11-11-11---|
D|-------------------------------------------------|

e|----------------|
B|----------------|
G|33-33-33-33-----|
D|xx-xx-xx-xx-----|
A|11-11-11-11-----|
D|----------------|

 x2
e|-----------------|
B|-----------------|
G|-----------------|
D|-----------------|
A|-----------------|
D|66-66-66-66------|


x2
e|----------------------------66---------|
B|----------------------66-66-66---------|
G|88-88-55-55-3--3---88-55-55-55-10-12---|
D|xx-xx-xx-xx-3--3---xx-xx-xx-xx-x--x----|
A|66-66-33-33-1--1---66-xx-xx-xx-8--10---|
D|----------------------55-55-55---------|

 x5
e|-----------------------------------------------5--------|
B|--8-----8-----8-----8-8/10----8-----8------8-----8------|
G|----7-----7-----7---------------7-----7------7-----7----|
D|----------------------------5-----5---------------------|
A|6-----6-----6-----6----------------------5--------------|
D|--------------------------------------------------------|

e|-------------|
B|-------------|
G|-------------|
D|1----3-1-----|
A|1----3-1-----|
D|1----3-1-----|


e|-------------------------------------------------------|
B|-------------------------------------------------------|
G|-------------------------------------------------------|
D|-------------------------------------------------6--6--|
A|666-----666-----666-----6-6-----6-6-----6-6------6--6--|
D|----5-5-----5-5-----5-5-----5-5-----5-5-----5-5--6--6--|

 x2
e|-------------------------------------------------|
B|1313-1313-1313-1313--33-33--44-44--33-33-33-33---|
G|1212-1212-1212-1212--33-33--55-55--33-33-33-33---|
D|1313-1313-1313-1313--xx-xx--xx-xx--xx-xx-xx-xx---|
A|1111-1111-1111-1111--11-11--33-33--11-11-11-11---|
D|-------------------------------------------------|

e|----------------|
B|----------------|
G|33-33-33-33-----|
D|xx-xx-xx-xx-----|
A|11-11-11-11-----|
D|----------------|

 x2
e|-----------------|
B|-----------------|
G|-----------------|
D|-----------------|
A|-----------------|
D|66-66-66-66------|

 x2
e|----------------------------66---------|
B|----------------------66-66-66---------|
G|88-88-55-55-3--3---88-55-55-55-10-12---|
D|xx-xx-xx-xx-3--3---xx-xx-xx-xx-x--x----|
A|66-66-33-33-1--1---66-xx-xx-xx-8--10---|
D|----------------------55-55-55---------|

e|------------------------------------------|
B|8-1010-10/-11-11---8-8/-10----------------|
G|8-1010-10/-12-12---8-8/-10----10----------|
D|x-x-x--x---x--x----x-x--x---8----8-10p8---|
A|6-8-8--8/--10-10---6-6/-8-----------------|
D|------------------------------------------|

e|------------------------------------------------------|
B|8-1010-10/-11-11---8-8/-10----------------------------|
G|8-1010-10/-12-12---8-8/-10----10----------------------|
D|x-x-x--x---x--x----x-x--x---8----8-10p8---------------|
A|6-8-8--8/--10-10---6-6/-8---------------8h10p8--------|
D|-----------------------------------------------12p10--|

e|------------------------------------------|
B|8-1010-10/-11-11---8-8/-10----------------|
G|8-1010-10/-12-12---8-8/-10----10----------|
D|x-x-x--x---x--x----x-x--x---8----8-10p8---|
A|6-8-8--8/--10-10---6-6/-8-----------------|
D|------------------------------------------|


e|-----------------|
B|8--11--10~-------|
G|8--12--10~-------|
D|x--x---x---------|
A|6--10--8~--------|
D|-----------------|

 x2
e|------------------------|
B|------------------------|
G|----7-----3------10-----|
D|--8-----5------8--------|
A|6-----3-----10----------|
D|------------------------|

comments
We did not receive enough feedback on this tab! Please rate:
print report bad tab
1 2 3 4 5
I want to post or [tab]
guest
You may want to rate the tab now too:
select rating
Please do not post tabs as comments. Select "correction" instead!