Oops, an error
Loading. Please wait.

Shadetree Mechanics Tab

by Bled
ver1
ver1

Whole song

Interactive

More versions @911Tabs.com
2,170 views 3 this week
2 commentsread comments
1 2 3 4 5
excellent!
x 2
Autoscroll
+/-
esc
set tempo
stop
Contributor
Difficulty
Tuning
intermediate
C G C F A D
Hey! There's an official Ultimate Guitar app which is ideal
for learning songs when you're away from computer. Get the app
WARNING: You are trying to view
                                    content from Ultimate-Guitar.com
                                    in an unauthorized application,
                                    which is prohibited.

                                    Please use an official Ultimate
                                    Guitar Tabs application for iPhone,
                                    iPad or Android to access legitimate
                                    chords, guitar, bass, and drum tabs
                                    from Ultimate-Guitar.com database.

                                    Type "ultimate guitar tabs" in Apple
                                    App Store's or Android Market's
                                    search to find the application.
#----------------------------------PLEASE NOTE---------------------------------#
#This file is the author's own work and represents their interpretation of the #
#song. You may only use this file for private study, scholarship, or research. #
#------------------------------------------------------------------------------#

SHADETREE MECHANICS
As recorded by The Bled
(From the 2007 Album SILENT TREATMENT)

Transcribed by jonathanonfire
        

Words and Music by The Bled

Gtr I (C G C F A D) - 'Left Channel'
Gtr II (C G C F A D) - 'Right Channel'
Gtr III (C G C F A D) - 'Outro Lead'

   Intro
    Q=126
    A
   4/4
    Gtr I
     S  S  S  S  S  S  S  S  S  S  S  S  S  S  S  S
||--------------------------------------------------|
||o-------------------------------------------------|
||--14-14-14-14-14-14-14-14-14-14-14-14-14-14-14-14-|
||---x--x--x--x--x--x--x--x--x--x--x--x--x--x--x--x-|
||o-12-12-12-12-12-12-12-12-12-12-12-12-12-12-12-12-|
||--------------------------------------------------|


   S  S  S  S  S  S  S  S  S  S  S  S  S  S  S  S
|--------------------------------------------------||
|-------------------------------------------------o||
|-14-14-14-14-14-14-14-14-14-14-14-14-14-14-14-14--||
|--x--x--x--x--x--x--x--x--x--x--x--x--x--x--x--x--||
|-12-12-12-12-12-12-12-12-12-12-12-12-12-12-12-12-o||
|--------------------------------------------------||


  D5    N.C.                      Db5   N.C.
  Gtr I
   S  S  S  S      S  S      S  S  S  S  S  S  S  S      S  S
|-------------------------------------------------------------|
|-------------------------------------------------------------|
|-14-14-14-14-----14-14-----14-14-14-14-14-14-14-14-----14-14-|
|--x--x--x--x------x--x------x--x--x--x--x--x--x--x------x--x-|
|-12-12-12-12-----12-12-----12-12-12-12-12-12-12-12-----12-12-|
|-------------------------------------------------------------|
|
| Gtr II
|  PM|
|  S  S  E     a   E     a   E     E     E     E     a   E
|-------------------------------------------------------------|
|-------------------------------------------------------------|
|----------------------------------7--------------------------|
|----------------------------------6--------------------------|
|--0--0----------------------------5--------------------------|
|--0--0--1----(1)s=6----(6)s=1-----0-----0-----1----(1)s=6----|


  D5    N.C.                      Db5   N.C.
   S  S  S  S      S  S      S  S  S  S  S  S  S  S      S  S
|-------------------------------------------------------------|
|-------------------------------------------------------------|
|-15-15-15-15-----15-15-----15-15-15-15-15-15-15-15-----15-15-|
|--x--x--x--x------x--x------x--x--x--x--x--x--x--x------x--x-|
|-13-13-13-13-----13-13-----13-13-13-13-13-13-13-13-----13-13-|
|-------------------------------------------------------------|
|
|  PM|
|  S  S  E     a   E     a   E     E     E     E     a   E
|-------------------------------------------------------------|
|-------------------------------------------------------------|
|----------------------------------7--------------------------|
|----------------------------------6--------------------------|
|--0--0----------------------------5--------------------------|
|--0--0--1----(1)s=6----(6)s=1-----0-----0-----1----(1)s=6----|


  D5    N.C.                      Db5   N.C.
   S  S  S  S      S  S      S  S  S  S  S  S  S  S      S  S
|-------------------------------------------------------------|
|-------------------------------------------------------------|
|-12-12-12-12-----12-12-----12-12-12-12-12-12-12-12-----12-12-|
|--x--x--x--x------x--x------x--x--x--x--x--x--x--x------x--x-|
|-10-10-10-10-----10-10-----10-10-10-10-10-10-10-10-----10-10-|
|-------------------------------------------------------------|
|
|  PM|
|  S  S  E     a   E     a   E     E     E     E     a   E
|-------------------------------------------------------------|
|-------------------------------------------------------------|
|----------------------------------7--------------------------|
|----------------------------------6--------------------------|
|--0--0----------------------------5--------------------------|
|--0--0--1----(1)s=6----(6)s=1-----0-----0-----1----(1)s=6----|


  D5    N.C.                    Db5 N.C.
   S  S S S      S  S      S  S S S  S  S Q
|--------------------------------------------||
|--------------------------------------------||
|-12-12-9-9-----10-10-----10-10-9-9-10-10----||
|--x--x-x-x------x--x------x--x-x-x--x--x----||
|-10-10-7-7------8--8------8--8-7-7--8--8----||
|--------------------------------------------||
|
|  PM|
|  S  S E    a   E     a   E    E    E    Q
|--------------------------------------------||
|--------------------------------------------||
|-------------------------------7------------||
|-------------------------------6------------||
|--0--0-------------------------5------------||
|--0--0-1---(1)s=6----(6)s=1----0----0-------||


 "Collect your bones.."
  D5  N.C.          DbN.C.        D5  N.C.          DbN.C.
  Gtrs I, II
  PM|                             PM|
  S S E  a  E  a  E E E E  a  E   S S E  a  E  a  E E E E  a  E
|-------------------------------|-------------------------------|
|-------------------------------|-------------------------------|
|-------------------7-----------|-------------------7-----------|
|-------------------6-----------|-------------------6-----------|
|-0-0---------------5-----------|-0-0---------------5-----------|
|-0-0-1-(1)s6-(6)s1-0-0-1-(1)s6-|-0-0-1-(1)s6-(6)s1-0-0-1-(1)s6-|


  D5  N.C.          DbN.C.        D5  N.C.          G#D#5 D5
  PM|                             PM|                 PM--------|
  S S E  a  E  a  E E E E  a  E   S S E  a  E  a  E E S S S S S S
|-------------------------------|---------------------------------|
|-------------------------------|---------------------------------|
|-------------------7-----------|---------------------------------|
|-------------------6-----------|---------------------------------|
|-0-0---------------5-----------|-0-0---------------5-1-1-0-0-0-0-|
|-0-0-1-(1)s6-(6)s1-0-0-1-(1)s6-|-0-0-1-(1)s6-(6)s1-6-1-1-0-0-0-0-|


  D5  N.C.          DbN.C.        D5  N.C.          DbN.C.
  PM|                             PM|
  S S E  a  E  a  E E E E  a  E   S S E  a  E  a  E E E E  a  E
|-------------------------------|-------------------------------|
|-------------------------------|-------------------------------|
|-------------------7-----------|-------------------7-----------|
|-------------------6-----------|-------------------6-----------|
|-0-0---------------5-----------|-0-0---------------5-----------|
|-0-0-1-(1)s6-(6)s1-0-0-1-(1)s6-|-0-0-1-(1)s6-(6)s1-0-0-1-(1)s6-|


  D5  N.C.                D5            N.C.        D5  G5    Bb5   F#5
  PM|                     PM----------|             PM|
  S S S S S S S S S S S S S S S S   S S S S S S S S S S E  a  E  a  E
|---------------------------------|------------------------------------|
|---------------------------------|------------------------------------|
|-----------------7---------------|------------------------------------|
|-----8p0-7p0-6p0---6p5p0---------|-----8p0-7p0-6p0--------------------|
|-0-0---------------------0-0-0-0-|-0-0-------------0-0-5-(5)s8-(8)s4--|
|-0-0---------------------0-0-0-0-|-0-0-------------0-0-5-(5)s8-(8)s4--|


  D5  N.C.                D5
  PM|                     PM-------
  S S S S S S S S S S S S S S S S
|---------------------------------|
|---------------------------------|
|-----------------7---------------|
|-----8p0-7p0-6p0---6p5p0---------|
|-0-0---------------------0-0-0-0-|
|-0-0---------------------0-0-0-0-|


      Bb                          C                 C#
 ---|
  S S S S S S E S S S S E S S   E S S S S E S S S S S S S S
|-----------------------------|------------------------------||
|-----------------------------|------------------------------||
|-----3-3-3-3---3-3-3-3---3-3-|---5-5-5-5---5-5-5-5-6-6-6-6--||
|-----0-0-0-0---0-0-0-0---0-0-|---2-2-2-2---2-2-2-2-3-3-3-3--||
|-0-0-1-1-1-1---1-1-1-1---1-1-|---3-3-3-3---3-3-3-3-4-4-4-4--||
|-0-0-------------------------|------------------------------||


 "Spare me the small-talk.."
  D5  F     D5  F     D5  F    D5  F     D5  F  G  F  E
  PM|       PM|       PM|      PM|       PM|
  S S  E  E S S  E  E S S  E   S S  E  E S S  E  E  E E
|----------------------------|--------------------------|
|----------------------------|--------------------------|
|-----10-10-----10-10-----10-|-----10-10-----10-12-10-9-|
|------x--x------x--x------x-|------x--x------x--x--x-x-|
|-0-0--8--8-0-0--8--8-0-0--8-|-0-0--8--8-0-0--8-10--8-7-|
|-0-0-------0-0-------0-0----|-0-0-------0-0------------|


  D5  FmajD5  FmajD5  FmajD5  FmajD5  N.C.  D5  Bbb5 D5  N.C.
                                                    2/4
  PM|     PM|     PM|     PM|     PM|       PM|      PM|
  S S E E S S E E S S E   S S E E S S  E  E S S  E   S S  S  S  E  E
|-----------------------|--------------------------|-----------------|
|-----------------------|--------------------------|-----------------|
|-----9-9-----9-9-----9-|-----9-9---------------15-|-----12h14-12----|
|-----7-7-----7-7-----7-|-----7-7---------------14-|--------------14-|
|-0-0-8-8-0-0-8-8-0-0-8-|-0-0-8-8-0-0-------0-0-13-|-0-0-------------|
|-0-0-----0-0-----0-0---|-0-0-----0-0-10-11-0-0----|-0-0-------------|


  D5  F     D5  G  F     D5  G    D5  F     D5  A  G  F  G
 4/4
  PM|       PM|          PM|      PM|       PM|
  S S  E  E S S  S  S  E S S  E   S S  E  E S S  E  E  E  E
|-------------------------------|---------------------------|
|-------------------------------|---------------------------|
|-----10-10-----12-10-10-----12-|-----10-10-----14-12-10-12-|
|------x--x------x--x--x------x-|------x--x------x--x--x--x-|
|-0-0--8--8-0-0-10--8--8-0-0-10-|-0-0--8--8-0-0-12-10--8-10-|
|-0-0-------0-0----------0-0----|-0-0-------0-0-------------|


  D5  FmajD5  FmajD5  FmajD5  FmajD5  D     F  D
  Gtr I
  PM|     PM|     PM|     PM|
  S S E E S S E E S S E   S S E E S S E  a   E E E
|-----------------------|--------------------------||
|-----------------------|--------------------------||
|-----9-9-----9-9-----9-|-----9-9-----7-(7)s10-7-9-||
|-----7-7-----7-7-----7-|-----7-7-----x-(x)s=x-x-x-||
|-0-0-8-8-0-0-8-8-0-0-8-|-0-0-8-8-0-0-5-(5)s=8-5-7-||
|-0-0-----0-0-----0-0---|-0-0-----0-0--------------||
|
| Gtr II
| PM|     PM|     PM|     PM|
| S S E E S S E E S S E   S S E E S S E  a   E Q
|-----------------------|--------------------------||
|-----------------------|--------------------------||
|-----9-9-----9-9-----9-|-----9-9-----7-(7)s10-7---||
|-----7-7-----7-7-----7-|-----7-7-----x-(x)s=x-x---||
|-0-0-8-8-0-0-8-8-0-0-8-|-0-0-8-8-0-0-5-(5)s=8-5---||
|-0-0-----0-0-----0-0---|-0-0-----0-0--------------||


 "I can hear you calling.."
  F                                         E
   S  S  S  S  S  S  S  S  S  S  S  S  S  S  S  S
|-------------------------------------------------|
|-------------------------------------------------|
|--7--7--7--7--7--7--7--7--7--7--7--7--7--7--7--7-|
|--x--x--x--x--x--x--x--x--x--x--x--x--x--x--x--x-|
|--5--5--5--5--5--5--5--5--5--5--5--5--5--5--5--5-|
|-------------------------------------------------|
|
|  S  S  S  S  S  S  S  S  S  S  S  S  S  S  S  S
|-13-13-13-13-13-13-13-13-13-13-13-13-13-13-12-12-|
|--x--x--x--x--x--x--x--x--x--x--x--x--x--x--x--x-|
|-10-10-10-10-10-10-10-10-10-10-10-10-10-10--9--9-|
|-------------------------------------------------|
|-------------------------------------------------|
|-------------------------------------------------|


   S  S  S  S  S  S  S  S  S  S  S  S  S  S  S  S
|-------------------------------------------------|
|-------------------------------------------------|
|--7--7--7--7--7--7--7--7--7--7--7--7--7--7--7--7-|
|--x--x--x--x--x--x--x--x--x--x--x--x--x--x--x--x-|
|--5--5--5--5--5--5--5--5--5--5--5--5--5--5--5--5-|
|-------------------------------------------------|
|
|  S  S  S  S  S  S  S  S  S  S  S  S  S  S  S  S
|-12-12-12-12-12-12-12-12-12-12-12-12-12-12-12-12-|
|--x--x--x--x--x--x--x--x--x--x--x--x--x--x--x--x-|
|--9--9--9--9--9--9--9--9--9--9--9--9--9--9--9--9-|
|-------------------------------------------------|
|-------------------------------------------------|
|-------------------------------------------------|


  A                                         Bb
   S  S  S  S  S  S  S  S  S  S  S  S  S  S  S  S
|-------------------------------------------------|
|-------------------------------------------------|
|--5--5--5--5--5--5--5--5--5--5--5--5--5--5--7--7-|
|--x--x--x--x--x--x--x--x--x--x--x--x--x--x--x--x-|
|--3--3--3--3--3--3--3--3--3--3--3--3--3--3--5--5-|
|-------------------------------------------------|
|
|  S  S  S  S  S  S  S  S  S  S  S  S  S  S  S  S
|-------------------------------------------------|
|-10-10-10-10-10-10-10-10-10-10-10-10-10-10-11-11-|
|--x--x--x--x--x--x--x--x--x--x--x--x--x--x--x--x-|
|--7--7--7--7--7--7--7--7--7--7--7--7--7--7--8--8-|
|-------------------------------------------------|
|-------------------------------------------------|


                          D       F    D
   S  S  S  S  S  S  S  S S S      S S S S S S
|-----------------------------------------------|
|-----------------------------------------------|
|--7--7--7--7--7--7--7--7-7-7------7-7-7-7-7-7--|
|--x--x--x--x--x--x--x--x-x-x------x-x-x-x-x-x--|
|--5--5--5--5--5--5--5--5-5-5------5-5-5-5-5-5--|
|-----------------------------------------------|
|
|  S  S  S  S  S  S  S  S E    a   E   Q
|-----------------------------------------------|
|-11-11-11-11-11-11-11-11-----------------------|
|--x--x--x--x--x--x--x--x-7---(7)s10---7--------|
|--8--8--8--8--8--8--8--8-x---(x)s=x---x--------|
|-------------------------5---(5)s=8---5--------|
|-----------------------------------------------|


  A                                         G
   S  S  S  S  S  S  S  S  S  S  S  S  S  S  S  S
|-13-13-13-13-13-13-13-13-13-13-13-13-13-13-12-12-|
|--x--x--x--x--x--x--x--x--x--x--x--x--x--x--x--x-|
|-10-10-10-10-10-10-10-10-10-10-10-10-10-10--9--9-|
|-------------------------------------------------|
|-------------------------------------------------|
|-------------------------------------------------|
|
|  S  S  S  S  S  S  S  S  S  S  S  S  S  S  S  S
|-------------------------------------------------|
|-------------------------------------------------|
|-14-14-14-14-14-14-14-14-14-14-14-14-14-14-12-12-|
|--x--x--x--x--x--x--x--x--x--x--x--x--x--x--x--x-|
|-12-12-12-12-12-12-12-12-12-12-12-12-12-12-10-10-|
|-------------------------------------------------|


   S  S  S  S  S  S  S  S  S  S  S  S  S  S  S  S
|-12-12-12-12-12-12-12-12-12-12-12-12-12-12-12-12-|
|--x--x--x--x--x--x--x--x--x--x--x--x--x--x--x--x-|
|--9--9--9--9--9--9--9--9--9--9--9--9--9--9--9--9-|
|-------------------------------------------------|
|-------------------------------------------------|
|-------------------------------------------------|
|
|  S  S  S  S  S  S  S  S  S  S  S  S  S  S  S  S
|-------------------------------------------------|
|-------------------------------------------------|
|-12-12-12-12-12-12-12-12-12-12-12-12-12-12-12-12-|
|--x--x--x--x--x--x--x--x--x--x--x--x--x--x--x--x-|
|-10-10-10-10-10-10-10-10-10-10-10-10-10-10-10-10-|
|-------------------------------------------------|


  G#b5
   S  S  S  S  S  S  S  S  S  S  S  S  S  S  S  S
|-------------------------------------------------|
|-------------------------------------------------|
|-13-13-13-13-13-13-13-13-13-13-13-13-13-13-13-13-|
|-12-12-12-12-12-12-12-12-12-12-12-12-12-12-12-12-|
|-11-11-11-11-11-11-11-11-11-11-11-11-11-11-11-11-|
|-------------------------------------------------|
|
|  S  S  S  S  S  S  S  S  S  S  S  S  S  S  S  S
|-------------------------------------------------|
|-------------------------------------------------|
|-13-13-13-13-13-13-13-13-13-13-13-13-13-13-13-13-|
|-12-12-12-12-12-12-12-12-12-12-12-12-12-12-12-12-|
|-11-11-11-11-11-11-11-11-11-11-11-11-11-11-11-11-|
|-------------------------------------------------|


   S  S  S  S  S  S  S  S  S  S  S  S  S  S  S  S
|-------------------------------------------------|
|-------------------------------------------------|
|-13-13-13-13-13-13-13-13-13-13-13-13-13-13-13-13-|
|-12-12-12-12-12-12-12-12-12-12-12-12-12-12-12-12-|
|-11-11-11-11-11-11-11-11-11-11-11-11-11-11-11-11-|
|-------------------------------------------------|
|
|  S  S  S  S  S  S  S  S  S  S  S  S  S  S  S  S
|-------------------------------------------------|
|-------------------------------------------------|
|-13-13-13-13-13-13-13-13-13-13-13-13-13-13-13-13-|
|-12-12-12-12-12-12-12-12-12-12-12-12-12-12-12-12-|
|-11-11-11-11-11-11-11-11-11-11-11-11-11-11-11-11-|
|-------------------------------------------------|


  G
   S  S  S  S  S  S  S  S  S  S  S  S  S  S  S  S
|-------------------------------------------17-17-|
|--------------------------------------------x--x-|
|-14-14-14-14-14-14-14-14-14-14-14-14-14-14-14-14-|
|--x--x--x--x--x--x--x--x--x--x--x--x--x--x-------|
|-13-13-13-13-13-13-13-13-13-13-13-13-13-13-------|
|-------------------------------------------------|
|
|  S  S  S  S  S  S  S  S  S  S  S  S  S  S  S  S
|-------------------------------------------------|
|-------------------------------------------------|
|-12-12-12-12-12-12-12-12-12-12-12-12-12-12-12-12-|
|--x--x--x--x--x--x--x--x--x--x--x--x--x--x--x--x-|
|-10-10-10-10-10-10-10-10-10-10-10-10-10-10-10-10-|
|-------------------------------------------------|


   S  S  S  S  S  S  S  S  S  S  S  S  S  S  S  S
|-17-17-17-17-17-17-17-17-17-17-17-17-17-17-17-17-|
|--x--x--x--x--x--x--x--x--x--x--x--x--x--x--x--x-|
|-14-14-14-14-14-14-14-14-14-14-14-14-14-14-14-14-|
|-------------------------------------------------|
|-------------------------------------------------|
|-------------------------------------------------|
|
|  S  S  S  S  S  S  S  S  S  S  S  S  S  S  S  S
|-------------------------------------------------|
|-------------------------------------------------|
|-12-12-12-12-12-12-12-12-12-12-12-12-12-12-12-12-|
|--x--x--x--x--x--x--x--x--x--x--x--x--x--x--x--x-|
|-10-10-10-10-10-10-10-10-10-10-10-10-10-10-10-10-|
|-------------------------------------------------|


  F                       G                 A
   S  S  S  S  S  S  S  S  S  S  S  S  S  S  S  S
|-------------------------------------------------|
|-------------------------------------------------|
|-10-10-10-10-10-10-10-10-10-10-10-10-10-10--9--9-|
|--x--x--x--x--x--x--x--x--x--x--x--x--x--x--7--7-|
|--8--8--8--8--8--8--8--8--8--8--8--8--8--8--8--8-|
|-------------------------------------------------|
|
|  S  S  S  S  S  S  S  S  S  S  S  S  S  S  S  S
|-------------------------------------------------|
|-------------------------------------------------|
|-10-10-10-10-10-10-10-10-12-12-12-12-12-12-14-14-|
|--x--x--x--x--x--x--x--x--x--x--x--x--x--x--x--x-|
|--8--8--8--8--8--8--8--8-10-10-10-10-10-10-12-12-|
|-------------------------------------------------|


                    D5  F  D5  E
                    PM|    PM|
   S  S  S  S  S  S S S  E S S Q
|---------------------------------||
|---------------------------------||
|--9--9--9--9--9--9-----10-----9--||
|--7--7--7--7--7--7------x-----x--||
|--8--8--8--8--8--8-0-0--8-0-0-7--||
|-------------------0-0----0-0----||
|
|                   PM|    PM|
|  S  S  S  S  S  S S S  E S S Q
|---------------------------------||
|---------------------------------||
|-14-14-14-14-14-14-----10-----9--||
|--x--x--x--x--x--x------x-----x--||
|-12-12-12-12-12-12-0-0--8-0-0-7--||
|-------------------0-0----0-0----||


 "I could destroy you.."
  D5  N.C.          DbD5      N.C.      D5  N.C.          DbD5      Db5
  Gtrs I, II
  PM|                 PM----|           PM|                 PM----|
  S S E  a  E  a  E E S S S S S  a  S   S S E  a  E  a  E E S S S S E
|-------------------------------------|-------------------------------|
|-------------------------------------|-------------------------------|
|-------------------7-----------------|-------------------7---------7-|
|-------------------6-----------------|-------------------6---------6-|
|-0-0---------------5-0-0-0-0---------|-0-0---------------5-0-0-0-0-5-|
|-0-0-1-(1)s6-(6)s1-0-0-0-0-0-1-(1)s6-|-0-0-1-(1)s6-(6)s1-0-0-0-0-0-0-|


  D5  N.C.          DbD5      N.C.      D5  N.C.
  PM|                 PM----|           PM|
  S S E  a  E  a  E E S S S S S  a  S   S S E  a  E  a  E a E  a  E  a  E E
|-------------------------------------|-------------------------------------|
|-------------------------------------|-------------------------------------|
|-------------------7-----------------|-------------------------------------|
|-------------------6-----------------|-------------------------------------|
|-0-0---------------5-0-0-0-0---------|-0-0---------------------------------|
|-0-0-1-(1)s6-(6)s1-0-0-0-0-0-1-(1)s6-|-0-0-1-(1)s6-(6)s1-xs1-(1)s6-(6)s1---|


  D5  N.C.          DbD5      N.C.      D5  N.C.          DbD5      Db5
  PM|                 PM----|           PM|                 PM----|
  S S E  a  E  a  E E S S S S S  a  S   S S E  a  E  a  E E S S S S E
|-------------------------------------|-------------------------------|
|-------------------------------------|-------------------------------|
|-------------------7-----------------|-------------------7---------7-|
|-------------------6-----------------|-------------------6---------6-|
|-0-0---------------5-0-0-0-0---------|-0-0---------------5-0-0-0-0-5-|
|-0-0-1-(1)s6-(6)s1-0-0-0-0-0-1-(1)s6-|-0-0-1-(1)s6-(6)s1-0-0-0-0-0-0-|


  D5  N.C.          DbD5      N.C.
  PM|                 PM----|
  S S E  a  E  a  E E S S S S S  a  S
|---------------------------------------||
|---------------------------------------||
|-------------------7-------------------||
|-------------------6-------------------||
|-0-0---------------5-0-0-0-0-----------||
|-0-0-1-(1)s6-(6)s1-0-0-0-0-0-1-(1)s6---||


 "..next time make sure.."
  D5
  PM|   PM------|   PM------|       PM------|   PM----------|
  S S E S S S S S S S S S S S S   E S S S S S S S S S S S S S S
|-------------------------------|-------------------------------|
|-------------------------------|-------------------------------|
|-------------------------------|-------------------------------|
|-------------------------------|-------------------------------|
|-0-0---0-0-0-0-0---0-0-0-0-0---|---0-0-0-0-0---0-0-0-0-0-0-0---|
|-0-0---0-0-0-0-0---0-0-0-0-0---|---0-0-0-0-0---0-0-0-0-0-0-0---|


  D5                                       C   D5  C5/G
  PM|   PM------|   PM------|          PM|     PM|
  S S E S S S S S S S S S S S S   H    S S  E  S S  E
|-------------------------------|----------------------||
|-------------------------------|----------<5>---------||
|-------------------------------|----------<5>-----<5>-||
|-------------------------------|------------------<5>-||
|-0-0---0-0-0-0-0---0-0-0-0-0---|------0-0-----0-0-----||
|-0-0---0-0-0-0-0---0-0-0-0-0---|------0-0-----0-0-----||


 "So make this your last.."
  D5  F     D5  F     D5  F    D5  F     D5  F  G  F  E
  PM|       PM|       PM|      PM|       PM|
  S S  E  E S S  E  E S S  E   S S  E  E S S  E  E  E E
|----------------------------|--------------------------|
|----------------------------|--------------------------|
|-----10-10-----10-10-----10-|-----10-10-----10-12-10-9-|
|------x--x------x--x------x-|------x--x------x--x--x-x-|
|-0-0--8--8-0-0--8--8-0-0--8-|-0-0--8--8-0-0--8-10--8-7-|
|-0-0-------0-0-------0-0----|-0-0-------0-0------------|


  D5  FmajD5  FmajD5  FmajD5  FmajD5  N.C.  D5  Bbb5 D5  N.C.
                                                    2/4
  PM|     PM|     PM|     PM|     PM|       PM|      PM|
  S S E E S S E E S S E   S S E E S S  E  E S S  E   S S  S  S  E  E
|-----------------------|--------------------------|-----------------|
|-----------------------|--------------------------|-----------------|
|-----9-9-----9-9-----9-|-----9-9---------------15-|-----12h14-12----|
|-----7-7-----7-7-----7-|-----7-7---------------14-|--------------14-|
|-0-0-8-8-0-0-8-8-0-0-8-|-0-0-8-8-0-0-------0-0-13-|-0-0-------------|
|-0-0-----0-0-----0-0---|-0-0-----0-0-10-11-0-0----|-0-0-------------|


  D5  F     D5  G  F     D5  G    D5  F     D5  A  G  F  G
 4/4
  PM|       PM|          PM|      PM|       PM|
  S S  E  E S S  S  S  E S S  E   S S  E  E S S  E  E  E  E
|-------------------------------|---------------------------|
|-------------------------------|---------------------------|
|-----10-10-----12-10-10-----12-|-----10-10-----14-12-10-12-|
|------x--x------x--x--x------x-|------x--x------x--x--x--x-|
|-0-0--8--8-0-0-10--8--8-0-0-10-|-0-0--8--8-0-0-12-10--8-10-|
|-0-0-------0-0----------0-0----|-0-0-------0-0-------------|


  D5  FmajD5  FmajD5  FmajD5  FmajD5  D     F  D
  Gtr I
  PM|     PM|     PM|     PM|
  S S E E S S E E S S E   S S E E S S E  a   E E E
|-----------------------|--------------------------||
|-----------------------|--------------------------||
|-----9-9-----9-9-----9-|-----9-9-----7-(7)s10-7-9-||
|-----7-7-----7-7-----7-|-----7-7-----x-(x)s=x-x-x-||
|-0-0-8-8-0-0-8-8-0-0-8-|-0-0-8-8-0-0-5-(5)s=8-5-7-||
|-0-0-----0-0-----0-0---|-0-0-----0-0--------------||
|
| Gtr II
| PM|     PM|     PM|     PM|
| S S E E S S E E S S E   S S E E S S E  a   E Q
|-----------------------|--------------------------||
|-----------------------|--------------------------||
|-----9-9-----9-9-----9-|-----9-9-----7-(7)s10-7---||
|-----7-7-----7-7-----7-|-----7-7-----x-(x)s=x-x---||
|-0-0-8-8-0-0-8-8-0-0-8-|-0-0-8-8-0-0-5-(5)s=8-5---||
|-0-0-----0-0-----0-0---|-0-0-----0-0--------------||


 "I can hear you calling.."
  F                                         E
   S  S  S  S  S  S  S  S  S  S  S  S  S  S  S  S
|-------------------------------------------------|
|-------------------------------------------------|
|--7--7--7--7--7--7--7--7--7--7--7--7--7--7--7--7-|
|--x--x--x--x--x--x--x--x--x--x--x--x--x--x--x--x-|
|--5--5--5--5--5--5--5--5--5--5--5--5--5--5--5--5-|
|-------------------------------------------------|
|
|  S  S  S  S  S  S  S  S  S  S  S  S  S  S  S  S
|-13-13-13-13-13-13-13-13-13-13-13-13-13-13-12-12-|
|--x--x--x--x--x--x--x--x--x--x--x--x--x--x--x--x-|
|-10-10-10-10-10-10-10-10-10-10-10-10-10-10--9--9-|
|-------------------------------------------------|
|-------------------------------------------------|
|-------------------------------------------------|


   S  S  S  S  S  S  S  S  S  S  S  S  S  S  S  S
|-------------------------------------------------|
|-------------------------------------------------|
|--7--7--7--7--7--7--7--7--7--7--7--7--7--7--7--7-|
|--x--x--x--x--x--x--x--x--x--x--x--x--x--x--x--x-|
|--5--5--5--5--5--5--5--5--5--5--5--5--5--5--5--5-|
|-------------------------------------------------|
|
|  S  S  S  S  S  S  S  S  S  S  S  S  S  S  S  S
|-12-12-12-12-12-12-12-12-12-12-12-12-12-12-12-12-|
|--x--x--x--x--x--x--x--x--x--x--x--x--x--x--x--x-|
|--9--9--9--9--9--9--9--9--9--9--9--9--9--9--9--9-|
|-------------------------------------------------|
|-------------------------------------------------|
|-------------------------------------------------|


  A                                         Bb
   S  S  S  S  S  S  S  S  S  S  S  S  S  S  S  S
|-------------------------------------------------|
|-------------------------------------------------|
|--5--5--5--5--5--5--5--5--5--5--5--5--5--5--7--7-|
|--x--x--x--x--x--x--x--x--x--x--x--x--x--x--x--x-|
|--3--3--3--3--3--3--3--3--3--3--3--3--3--3--5--5-|
|-------------------------------------------------|
|
|  S  S  S  S  S  S  S  S  S  S  S  S  S  S  S  S
|-------------------------------------------------|
|-10-10-10-10-10-10-10-10-10-10-10-10-10-10-11-11-|
|--x--x--x--x--x--x--x--x--x--x--x--x--x--x--x--x-|
|--7--7--7--7--7--7--7--7--7--7--7--7--7--7--8--8-|
|-------------------------------------------------|
|-------------------------------------------------|


                          D       F    D
   S  S  S  S  S  S  S  S S S      S S S S S S
|-----------------------------------------------|
|-----------------------------------------------|
|--7--7--7--7--7--7--7--7-7-7------7-7-7-7-7-7--|
|--x--x--x--x--x--x--x--x-x-x------x-x-x-x-x-x--|
|--5--5--5--5--5--5--5--5-5-5------5-5-5-5-5-5--|
|-----------------------------------------------|
|
|  S  S  S  S  S  S  S  S E    a   E   Q
|-----------------------------------------------|
|-11-11-11-11-11-11-11-11-----------------------|
|--x--x--x--x--x--x--x--x-7---(7)s10---7--------|
|--8--8--8--8--8--8--8--8-x---(x)s=x---x--------|
|-------------------------5---(5)s=8---5--------|
|-----------------------------------------------|


  A                                         G
   S  S  S  S  S  S  S  S  S  S  S  S  S  S  S  S
|-13-13-13-13-13-13-13-13-13-13-13-13-13-13-12-12-|
|--x--x--x--x--x--x--x--x--x--x--x--x--x--x--x--x-|
|-10-10-10-10-10-10-10-10-10-10-10-10-10-10--9--9-|
|-------------------------------------------------|
|-------------------------------------------------|
|-------------------------------------------------|
|
|  S  S  S  S  S  S  S  S  S  S  S  S  S  S  S  S
|-------------------------------------------------|
|-------------------------------------------------|
|-14-14-14-14-14-14-14-14-14-14-14-14-14-14-12-12-|
|--x--x--x--x--x--x--x--x--x--x--x--x--x--x--x--x-|
|-12-12-12-12-12-12-12-12-12-12-12-12-12-12-10-10-|
|-------------------------------------------------|


   S  S  S  S  S  S  S  S  S  S  S  S  S  S  S  S
|-12-12-12-12-12-12-12-12-12-12-12-12-12-12-12-12-|
|--x--x--x--x--x--x--x--x--x--x--x--x--x--x--x--x-|
|--9--9--9--9--9--9--9--9--9--9--9--9--9--9--9--9-|
|-------------------------------------------------|
|-------------------------------------------------|
|-------------------------------------------------|
|
|  S  S  S  S  S  S  S  S  S  S  S  S  S  S  S  S
|-------------------------------------------------|
|-------------------------------------------------|
|-12-12-12-12-12-12-12-12-12-12-12-12-12-12-12-12-|
|--x--x--x--x--x--x--x--x--x--x--x--x--x--x--x--x-|
|-10-10-10-10-10-10-10-10-10-10-10-10-10-10-10-10-|
|-------------------------------------------------|


  G#b5
   S  S  S  S  S  S  S  S  S  S  S  S  S  S  S  S
|-------------------------------------------------|
|-------------------------------------------------|
|-13-13-13-13-13-13-13-13-13-13-13-13-13-13-13-13-|
|-12-12-12-12-12-12-12-12-12-12-12-12-12-12-12-12-|
|-11-11-11-11-11-11-11-11-11-11-11-11-11-11-11-11-|
|-------------------------------------------------|
|
|  S  S  S  S  S  S  S  S  S  S  S  S  S  S  S  S
|-------------------------------------------------|
|-------------------------------------------------|
|-13-13-13-13-13-13-13-13-13-13-13-13-13-13-13-13-|
|-12-12-12-12-12-12-12-12-12-12-12-12-12-12-12-12-|
|-11-11-11-11-11-11-11-11-11-11-11-11-11-11-11-11-|
|-------------------------------------------------|


   S  S  S  S  S  S  S  S  S  S  S  S  S  S  S  S
|-------------------------------------------------|
|-------------------------------------------------|
|-13-13-13-13-13-13-13-13-13-13-13-13-13-13-13-13-|
|-12-12-12-12-12-12-12-12-12-12-12-12-12-12-12-12-|
|-11-11-11-11-11-11-11-11-11-11-11-11-11-11-11-11-|
|-------------------------------------------------|
|
|  S  S  S  S  S  S  S  S  S  S  S  S  S  S  S  S
|-------------------------------------------------|
|-------------------------------------------------|
|-13-13-13-13-13-13-13-13-13-13-13-13-13-13-13-13-|
|-12-12-12-12-12-12-12-12-12-12-12-12-12-12-12-12-|
|-11-11-11-11-11-11-11-11-11-11-11-11-11-11-11-11-|
|-------------------------------------------------|


  F                                         E
   S  S  S  S  S  S  S  S  S  S  S  S  S  S  S  S
|-------------------------------------------------|
|-------------------------------------------------|
|--7--7--7--7--7--7--7--7--7--7--7--7--7--7--7--7-|
|--x--x--x--x--x--x--x--x--x--x--x--x--x--x--x--x-|
|--5--5--5--5--5--5--5--5--5--5--5--5--5--5--5--5-|
|-------------------------------------------------|
|
|  S  S  S  S  S  S  S  S  S  S  S  S  S  S  S  S
|-13-13-13-13-13-13-13-13-13-13-13-13-13-13-12-12-|
|--x--x--x--x--x--x--x--x--x--x--x--x--x--x--x--x-|
|-10-10-10-10-10-10-10-10-10-10-10-10-10-10--9--9-|
|-------------------------------------------------|
|-------------------------------------------------|
|-------------------------------------------------|


   S  S  S  S  S  S  S  S  S  S  S  S  S  S  S  S
|-------------------------------------------------|
|-------------------------------------------------|
|--7--7--7--7--7--7--7--7--7--7--7--7--7--7--7--7-|
|--x--x--x--x--x--x--x--x--x--x--x--x--x--x--x--x-|
|--5--5--5--5--5--5--5--5--5--5--5--5--5--5--5--5-|
|-------------------------------------------------|
|
|  S  S  S  S  S  S  S  S  S  S  S  S  S  S  S  S
|-12-12-12-12-12-12-12-12-12-12-12-12-12-12-12-12-|
|--x--x--x--x--x--x--x--x--x--x--x--x--x--x--x--x-|
|--9--9--9--9--9--9--9--9--9--9--9--9--9--9--9--9-|
|-------------------------------------------------|
|-------------------------------------------------|
|-------------------------------------------------|


  A                                         Bb
   S  S  S  S  S  S  S  S  S  S  S  S  S  S  S  S
|-------------------------------------------------|
|-------------------------------------------------|
|--5--5--5--5--5--5--5--5--5--5--5--5--5--5--7--7-|
|--x--x--x--x--x--x--x--x--x--x--x--x--x--x--x--x-|
|--3--3--3--3--3--3--3--3--3--3--3--3--3--3--5--5-|
|-------------------------------------------------|
|
|  S  S  S  S  S  S  S  S  S  S  S  S  S  S  S  S
|-------------------------------------------------|
|-10-10-10-10-10-10-10-10-10-10-10-10-10-10-11-11-|
|--x--x--x--x--x--x--x--x--x--x--x--x--x--x--x--x-|
|--7--7--7--7--7--7--7--7--7--7--7--7--7--7--8--8-|
|-------------------------------------------------|
|-------------------------------------------------|


   S  S  S  S  S  S  S  S  S  S  S  S  S  S  S  S
|-------------------------------------------------|
|-------------------------------------------------|
|--7--7--7--7--7--7--7--7--7--7--7--7--7--7--7--7-|
|--x--x--x--x--x--x--x--x--x--x--x--x--x--x--x--x-|
|--5--5--5--5--5--5--5--5--5--5--5--5--5--5--5--5-|
|-------------------------------------------------|
|
|  S  S  S  S  S  S  S  S  S  S  S  S  S  S  S  S
|-------------------------------------------------|
|-11-11-11-11-11-11-11-11-11-11-11-11-11-11-11-11-|
|--x--x--x--x--x--x--x--x--x--x--x--x--x--x--x--x-|
|--8--8--8--8--8--8--8--8--8--8--8--8--8--8--8--8-|
|-------------------------------------------------|
|-------------------------------------------------|


  F                       G                 A
   S  S  S  S  S  S  S  S  S  S  S  S  S  S  S  S
|-------------------------------------------------|
|-------------------------------------------------|
|-10-10-10-10-10-10-10-10-10-10-10-10-10-10--9--9-|
|--x--x--x--x--x--x--x--x--x--x--x--x--x--x--7--7-|
|--8--8--8--8--8--8--8--8--8--8--8--8--8--8--8--8-|
|-------------------------------------------------|
|
|  S  S  S  S  S  S  S  S  S  S  S  S  S  S  S  S
|-------------------------------------------------|
|-------------------------------------------------|
|-10-10-10-10-10-10-10-10-12-12-12-12-12-12-14-14-|
|--x--x--x--x--x--x--x--x--x--x--x--x--x--x--x--x-|
|--8--8--8--8--8--8--8--8-10-10-10-10-10-10-12-12-|
|-------------------------------------------------|


                    D5  F  D5  E
                    PM|    PM|
   S  S  S  S  S  S S S  E S S Q
|---------------------------------||
|---------------------------------||
|--9--9--9--9--9--9-----10-----9--||
|--7--7--7--7--7--7------x-----x--||
|--8--8--8--8--8--8-0-0--8-0-0-7--||
|-------------------0-0----0-0----||
|
|                   PM|    PM|
|  S  S  S  S  S  S S S  E S S Q
|---------------------------------||
|---------------------------------||
|-14-14-14-14-14-14-----10-----9--||
|--x--x--x--x--x--x------x-----x--||
|-12-12-12-12-12-12-0-0--8-0-0-7--||
|-------------------0-0----0-0----||


 Bridge
  D5   N.C.                D5          N.C.                D5
  Gtr I
                           PM--------|                     PM----|
  H.                       S S S S   E H               E   S S S S
|----------------------------------|--------------------------------|
|----------------------------------|--------------------------------|
|----------------------------------|--------------------------------|
|-0--------------------------------|--------------------------------|
|-0------------------------0-0-0-0-|-0---------------------0-0-0-0--|
|-0------------------------0-0-0-0-|-0---------------------0-0-0-0--|
|
| Gtr II
| PM-|                     PM--------|                     PM----|
| S  S S S S S S S S S S S S S S S   E S S S S S S S S S S S S S S
|----------------------------------|--------------------------------|
|----------------------------------|--------------------------------|
|------------------7---------------|---------------7----------------|
|------8p0-7p0-6p0---6p5p0---------|---8p0-7p0-6p0---6p5p0----------|
|-0--0---------------------0-0-0-0-|-0---------------------0-0-0-0--|
|-0--0---------------------0-0-0-0-|-0---------------------0-0-0-0--|


  D5N.C.                D5          N.C.        D5  G5    Bb5   F#5
  PM                    PM--------|
  E H               E   S S S S   E H               E  a  E  a  E
|-------------------------------|---------------------------------|
|-------------------------------|---------------------------------|
|-------------------------------|---------------------------------|
|-------------------------------|---------------------------------|
|-0---------------------0-0-0-0-|-0-----------------5-(5)s8-(8)s4-|
|-0---------------------0-0-0-0-|-0-----------------5-(5)s8-(8)s4-|
|
| PM                    PM--------|             PM|
| E S S S S S S S S S S S S S S   E S S S S S S S S E  a  E  a  E
|-------------------------------|---------------------------------|
|-------------------------------|---------------------------------|
|---------------7---------------|---------------------------------|
|---8p0-7p0-6p0---6p5p0---------|---8p0-7p0-6p0-------------------|
|-0---------------------0-0-0-0-|-0-------------0-0-5-(5)s8-(8)s4-|
|-0---------------------0-0-0-0-|-0-------------0-0-5-(5)s8-(8)s4-|


  D5                                                      Bb5 G5
  W              +W            +W               +H        E E E E
|--------------|-------------|----------------|---------------------||
|--------------|-------------|----------------|---------------------||
|--------------|-------------|----------------|---------------------||
|-0------------|-(0)---------|-(0)------------|-(0)-------8---5-----||
|-0------------|-(0)---------|-(0)------------|-(0)-------8---5-----||
|-0------------|-(0)---------|-(0)------------|-(0)-------8---5-----||
|
| H..        E    W        a   +H..       +E     Q.   a E E E E E
|--------------|-------------|----------------|---------------------||
|--------------|-------------|----------------|---------------------||
|--------------|-------------|----------------|---------------------||
|--------------|-------------|----------------|-----------8---5-----||
|--------------|-------------|----------------|-----------8---5-----||
|-----------12s|=10s=======0-|-(0)--------(0)s|==2s==11---8---5-----||


   "Next time there will be.."
    D5                                     Em
    Gtrs I, II
              PM--------|
     E E  E E S S S S S S  E   E  E E  E E E E E  3x
||--17---17---------------17-|---17---17----------||
||o--x----x----------------x-|----x----x---------o||
||--14---14---------------14-|---14---14---9-9-9--||
||---0----0----------------0-|----0----0---5-5-5--||
||o--0----0---0-0-0-0-0-0--0-|----0----0---7-7-7-o||
||---0----0---0-0-0-0-0-0--0-|----0----0----------||


  D5                    G5     Bb5
  Gtrs I, II
            PM--------|
   E E  E E S S S S S S E   E  Q    H          E
|-17---17-----------------|----------------------||
|--x----x-----------------|----------------------||
|-14---14-----------------|----------------------||
|--0----0---------------5-|----8\----------------||
|--0----0---0-0-0-0-0-0-5-|----8\----------------||
|--0----0---0-0-0-0-0-0-5-|----8\----------------||
|
| Gtr III
|  W                        Q.      E  E.  E.  E
|-------------------------|-----------18--17-----||
|-------------------------|--------15------------||
|-------------------------|-------------------14-||
|-------------------------|----------------------||
|-------------------------|----------------------||
|-------------------------|----------------------||


 Outro
  D5                                       N.C.
    PM----------------------------------|
    E   E   E E S S S S S S E     E   E  E  E  E.  E.  E
|-----------------------------|--------------------------|
|-----------------------------|--------------------------|
|-----------------------------|---------------10--10-----|
|-----------------------------|-------------7----------7-|
|---0-------0---0-0-0-0-0-0-0-|-------0------------------|
|---0-------0---0-0-0-0-0-0-0-|-------0------------------|
|
|  +E   H..                      +E   E  E  E  E.  E.  E
|-----------------------------|---------------18--18--17-|
|-----------------------------|---------15---------------|
|-(14)-14---------------------|-(14)-14----14------------|
|-----------------------------|--------------------------|
|-----------------------------|--------------------------|
|-----------------------------|--------------------------|


  D5                                       N.C.
    PM----------------------------------|
    E   E   E E S S S S S S E     E   E  E  E  E.  E.  E
|-----------------------------|--------------------------|
|-----------------------------|--------------------------|
|-----------------------------|---------------10--10-----|
|-----------------------------|-------------7----------7-|
|---0-------0---0-0-0-0-0-0-0-|-------0------------------|
|---0-------0---0-0-0-0-0-0-0-|-------0------------------|
|
|  +E   H..                      +E   E  E  E  E.  E.  E
|-(17)------------------------|---------------18--18--15-|
|------15---------------------|-(15)----15---------------|
|-----------------------------|------14----14------------|
|-----------------------------|--------------------------|
|-----------------------------|--------------------------|
|-----------------------------|--------------------------|


  D5                                       N.C.
    PM----------------------------------|
    E   E   E E S S S S S S E     E   E  E  E  E.  E.  E
|-----------------------------|--------------------------|
|-----------------------------|--------------------------|
|-----------------------------|---------------10--10-----|
|-----------------------------|-------------7----------7-|
|---0-------0---0-0-0-0-0-0-0-|-------0------------------|
|---0-------0---0-0-0-0-0-0-0-|-------0------------------|
|
|  +E   H..                      +E   E  E  E  E.  E.  E
|-(15)-15---------------------|-(15)-17-15-13-15--17--13-|
|-----------------------------|--------------------------|
|-----------------------------|--------------------------|
|-----------------------------|--------------------------|
|-----------------------------|--------------------------|
|-----------------------------|--------------------------|


  D5
   PM------------------|        PM--------------------|
   E E E E S S S S S S E     E  S S S S E S S S S S S E
|------------------------|------------------------------|
|------------------------|------------------------------|
|------------------------|------------------------------|
|------------------------|------------------------------|
|--0---0---0-0-0-0-0-0-0-|------0-0-0-0-0-0-0-0-0-0-0-0-|
|--0---0---0-0-0-0-0-0-0-|------0-0-0-0-0-0-0-0-0-0-0-0-|
|
|                            >
|  W                        +W
|------------------------|------------------------------|
|-15---------------------|-(15)-------------------------|
|------------------------|------------------------------|
|------------------------|------------------------------|
|------------------------|------------------------------|
|------------------------|------------------------------|


  D5                          N.C.
                             2/4
  Gtrs I, II
  PM--------------------|
  S S E S S E S S S S S S E   H
|---------------------------|------*|
|---------------------------|------*|
|---------------------------|------*|
|-------------------------0-|------*|
|-0-0---0-0---0-0-0-0-0-0-0-|------*|
|-0-0---0-0---0-0-0-0-0-0-0-|------*|



Duration Legend
---------------
W - whole; H - half; Q - quarter; E - 8th; S - 16th; T - 32nd; X - 64th; a - acciaccatura
+ - note tied to previous; . - note dotted; .. - note double dotted
Uncapitalized letters represent notes that are staccato (1/2 duration)
Irregular groupings are notated above the duration line
Duration letters will always appear directly above the note/fret number it represents the
duration for.  Duration letters with no fret number below them represent rests.  Multi-
bar rests are notated in the form Wxn, where n is the number of bars to rest for.  Low
melody durations appear below the staff

Tablature Legend
----------------
 h   - hammer-on
 p   - pull-off
 b   - bend
 pb  - pre-bend
 r   - bend release (if no number after the r, then release immediately)
 /\  - slide into or out of (from/to "nowhere")
 s   - legato slide
 S   - shift slide
 - natural harmonic
[n]  - artificial harmonic
n(n) - tapped harmonic
 ~   - vibrato
 tr  - trill
 T   - tap
 TP  - trem. picking
 PM  - palm muting
\n/  - tremolo bar dip; n = amount to dip
 \n  - tremolo bar down
 n/  - tremolo bar up
/n\  - tremolo bar inverted dip
 =   - hold bend; also acts as connecting device for hammers/pulls
 <> - volume swell (louder/softer)
 x   - on rhythm slash represents muted slash
 o   - on rhythm slash represents single note slash

Misc Legend
-----------
 |  - bar
||  - double bar
||o - repeat start
o|| - repeat end
*|  - double bar (ending)
 :  - bar (freetime)
 $  - Segno
 &  - Coda
Tempo markers -  = BPM(8/16=s8/s16), where s8 = swing 8ths, s16 = swing 16ths


** Generated using Power Tab Editor by Brad Larsen: The Official Power Tab Web Site
comments
We did not receive enough feedback on this tab! Please rate:
print report bad tab
1 2 3 4 5
2 comments total.
0 reply
jonathanonfire wrote on December 21 2007, 02:37 am

check my powertab of this. it should be spot on. =]

0 reply
thricepunk2117 wrote on July 2 2008, 08:30 pm

very good tab... can't really tell any mistakes. very good song to pick too... it's so intense!

I want to post or [tab]
guest
You may want to rate the tab now too:
select rating
Please do not post tabs as comments. Select "correction" instead!