Oops, an error
Loading. Please wait.

And The Story Ends Bass Tab

229 views 1 this week
no commentswrite comment
1 2 3 4 5
please rate
Autoscroll
+/-
esc
set tempo
stop
Contributor
WARNING: You are trying to view
                                    content from Ultimate-Guitar.com
                                    in an unauthorized application,
                                    which is prohibited.

                                    Please use an official Ultimate
                                    Guitar Tabs application for iPhone,
                                    iPad or Android to access legitimate
                                    chords, guitar, bass, and drum tabs
                                    from Ultimate-Guitar.com database.

                                    Type "ultimate guitar tabs" in Apple
                                    App Store's or Android Market's
                                    search to find the application.
Blind Guardian - And The Story Ends

tune down

F#||----------------------------|----------------------------|
C#||----------------------------|----------------------------|
G#||----------------------------|----------------------------|
D#||--2--2--2--2----------------|--2--2--2--2----------------|


                                                                      
----------------------------|----------------------------------------|
----------------------------|----------------------------------------|
----------------------------|--4--4--4--3----4--4--4--3----4----4----|
--2--2--2--2----------------|----------------------------------------|


                                                          
----------------------------|----------------------------|
----------------------------|----------------------------|
----------------------------|----------------------------|
--2--2--2--2----------------|--2--2--2--2----------------|


                                                                      
----------------------------|----------------------------------------|
----------------------------|----------------------------------------|
----------------------------|--4--4--4--3----4--4--4--3----4----4----|
--2--2--2--2----------------|----------------------------------------|


                                                               
---------------------|--------------------|-------------------|
---------------------|--------------------|-------------------|
---------------------|--4-----------------|--5----------------|
--2--------2--4------|---------------5----|-------------------|


                                                              
------------------|---------------------|--------------------|
------------------|---------------------|--------------------|
------------------|---------------------|-----------5/-------|
------------------|--2--------2--4------|--5-----------------|


                                                             
-------------------|------------------|---------------------|
-------------------|------------------|---------------------|
-------------------|------------------|---------------------|
--0----------------|------------------|--2--------2--4------|


                                                            
--------------------|-------------------|------------------|
--------------------|-------------------|------------------|
--4-----------------|--5----------------|------------------|
---------------5----|-------------------|------------------|


                                                               
---------------------|--------------------|-------------------|
---------------------|--------------------|-------------------|
---------------------|-----------5/-------|-------------------|
--2--------2--4------|--5-----------------|--0----------------|


                                                                         
------------------|--------------------------|--------------------------|
------------------|--------------------------|--------------------------|
------------------|--------------------------|--5--5--5--5--5--5--5--5--|
------------------|--2--2--2--2--2--2--2--2--|--------------------------|


                                                      
--------------------------|--------------------------|
--------------------------|--------------------------|
--------------------------|--5--5--5--5--5--5--5--5--|
--2--2--2--2--2--2--2--2--|--------------------------|


                                                      
--------------------------|--------------------------|
--------------------------|--------------------------|
--------------------------|--5--5--5--5--5--5--5--5--|
--2--2--2--2--2--2--2--2--|--------------------------|


                                                                          
--------------------------|--------------------------|-------------------|
--------------------------|--------------------------|-------------------|
--------------------------|--5--5--5--5--5--5--5--5--|-------------------|
--2--2--2--2--2--2--2--2--|--------------------------|--2----------------|


                                                                               
------------------|-------------------|------------------|--------------------|
------------------|-------------------|------------------|--------------------|
------------------|-------------------|------------------|--------------------|
------------------|--2----------------|------------------|--7--------5--------|


                                                                               
-------------------|-------------------|------------------|-------------------|
-------------------|-------------------|------------------|-------------------|
-------------------|--5----------------|------------------|-------------------|
--7----------------|-------------------|------------------|--2----------------|


                                                                               
------------------|-------------------|------------------|--------------------|
------------------|-------------------|------------------|--------------------|
------------------|-------------------|------------------|--------------------|
------------------|--2----------------|------------------|--7--------5--------|


                                                                               
-------------------|-------------------|------------------|-------------------|
-------------------|-------------------|------------------|-------------------|
-------------------|--5----------------|------------------|--9----------------|
--7----------------|-------------------|------------------|-------------------|


                                                            
-------------------|--------------------|------------------|
-------------------|--------------------|------------------|
--7----------------|--------------------|------------------|
-------------------|--10----------------|------------------|


                                                              
--------------------|------------------|---------------------|
--------------------|------------------|---------------------|
--------------------|------------------|---------------------|
--10/---------------|------------------|--2--------2--4------|


                                                            
--------------------|-------------------|------------------|
--------------------|-------------------|------------------|
-----------5/-------|-------------------|------------------|
--5-----------------|--0----------------|------------------|


                                                               
---------------------|--------------------|-------------------|
---------------------|--------------------|-------------------|
---------------------|--4-----------------|--5----------------|
--2--------2--4------|---------------5----|-------------------|


                                                              
------------------|---------------------|--------------------|
------------------|---------------------|--------------------|
------------------|---------------------|-----------5/-------|
------------------|--2--------2--4------|--5-----------------|


                                                                    
-------------------|------------------|----------------------------|
-------------------|------------------|----------------------------|
-------------------|------------------|----------------------------|
--0----------------|------------------|--2--2--2--2----------------|


                                                          
----------------------------|----------------------------|
----------------------------|----------------------------|
----------------------------|----------------------------|
--2--2--2--2----------------|--2--2--2--2----------------|


                                                               
----------------------------------------|---------------------|
----------------------------------------|---------------------|
----------------------------------------|---------------------|
--3--3--3--3----3--3--3--3----3----3----|--2----2--2--2--2----|


                                                                  
---------------------|---------------------|---------------------|
---------------------|---------------------|---------------------|
---------------------|--5----5--5--5--5----|---------------------|
--5----5--5--5--5----|---------------------|--0----0--0--0--0----|


                                                                  
---------------------|---------------------|---------------------|
---------------------|---------------------|---------------------|
--5----5--5--5--5----|---------------------|---------------------|
---------------------|--5----5--5--5--5----|--7----7--7--7--7----|


                                                                            
---------------------|--------------------------|--------------------------|
---------------------|--------------------------|--------------------------|
--4----4--4--4--4----|--------------------------|--------------------------|
---------------------|--2--2--2--2--2--2--2--2--|--5--5--5--5--5--5--5--5--|


                                                      
--------------------------|--------------------------|
--------------------------|--------------------------|
--5--5--5--5--5--5--5--5--|--------------------------|
--------------------------|--0--0--0--0--0--0--0--0--|


                                                      
--------------------------|--------------------------|
--------------------------|--------------------------|
--5--5--5--5--5--5--5--5--|--------------------------|
--------------------------|--5--5--5--5--5--5--5--5--|


                                                      
--------------------------|--------------------------|
--------------------------|--------------------------|
--------------------------|--4--4--4--4--4--4--4--4--|
--7--7--7--7--7--7--7--7--|--------------------------|


                                                                              
--------------------------------------|--------------------------------------|
--------------------------------------|--------------------------------------|
--------------------------------------|--------------------------------------|
--2--2--2--2--2--2--2--2--2--2--2--2--|--5--5--5--5--5--5--5--5--5--5--5--5--|


                                                                              
--------------------------------------|--------------------------------------|
--------------------------------------|--------------------------------------|
--5--5--5--5--5--5--5--5--5--5--5--5--|--------------------------------------|
--------------------------------------|--0--0--0--0--0--0--0--0--0--0--0--0--|


                                                                              
--------------------------------------|--------------------------------------|
--------------------------------------|--------------------------------------|
--5--5--5--5--5--5--5--5--5--5--5--5--|--------------------------------------|
--------------------------------------|--5--5--5--5--5--5--5--5--5--5--5--5--|


                                                                              
--------------------------------------|--------------------------------------|
--------------------------------------|--------------------------------------|
--------------------------------------|--4--4--4--4--4--4--4--4--4--4--4--4--|
--7--7--7--7--7--7--7--7--7--7--7--7--|--------------------------------------|


                                                                
-------------------------------|-------------------------------|
-------------------------------|-------------------------------|
-------------------------------|-------------------------------|
--2-2-2-2-2--2-2-2-2-2--2-2-2--|--2-2-2-2-2--2-2-2-2-2--2-2-2--|


                                                                
-------------------------------|-------------------------------|
-------------------------------|-------------------------------|
-------------------------------|-------------------------------|
--3-3-3-3-3--0-0-0-0-0--0-0-0--|--7-7-7-7-7--3-3-3-3-3--3-3-3--|


                                                                
-------------------------------|-------------------------------|
-------------------------------|-------------------------------|
-------------------------------|-------------------------------|
--2-2-2-2-2--2-2-2-2-2--2-2-2--|--2-2-2-2-2--2-2-2-2-2--2-2-2--|


                                                                
-------------------------------|-------------------------------|
-------------------------------|-------------------------------|
-------------------------------|-------------------------------|
--3-3-3-3-3--0-0-0-0-0--0-0-0--|--7-7-7-7-7--3-3-3-3-3--3-3-3--|


                                                      
--------------------------|--------------------------|
--------------------------|--------------------------|
--------------------------|--5--5--5--5--5--5--5--5--|
--2--2--2--2--2--2--2--2--|--------------------------|


                                                      
--------------------------|--------------------------|
--------------------------|--------------------------|
--------------------------|--5--5--5--5--5--5--5--5--|
--2--2--2--2--2--2--2--2--|--------------------------|


                                                      
--------------------------|--------------------------|
--------------------------|--------------------------|
--------------------------|--5--5--5--5--5--5--5--5--|
--2--2--2--2--2--2--2--2--|--------------------------|


                                                                            
--------------------------|--------------------------|---------------------|
--------------------------|--------------------------|---------------------|
--------------------------|--5--5--5--5--5--5--5--5--|---------------------|
--2--2--2--2--2--2--2--2--|--------------------------|--7------7--5--------|


                                                             
---------------------|-------------------|------------------|
---------------------|-------------------|------------------|
---------------------|--5----------------|------------------|
--7--------7----7----|-------------------|------------------|


                                                                                
-------------------|-------------------|--------------------|------------------|
-------------------|-------------------|--------------------|------------------|
--9----------------|--7----------------|--------------------|------------------|
-------------------|-------------------|--10----------------|------------------|


                                                              
--------------------|------------------|---------------------|
--------------------|------------------|---------------------|
--------------------|------------------|---------------------|
--10/---------------|------------------|--2--------2--4------|


                                                            
--------------------|-------------------|------------------|
--------------------|-------------------|------------------|
-----------5/-------|-------------------|------------------|
--5-----------------|--0----------------|------------------|


                                                               
---------------------|--------------------|-------------------|
---------------------|--------------------|-------------------|
---------------------|--4-----------------|--5----------------|
--2--------2--4------|---------------5----|-------------------|


                                                              
------------------|---------------------|--------------------|
------------------|---------------------|--------------------|
------------------|---------------------|-----------5/-------|
------------------|--2--------2--4------|--5-----------------|


                                                                       
-------------------|------------------|-------------------------------|
-------------------|------------------|-------------------------------|
-------------------|------------------|-------------------------------|
--0----------------|------------------|--2-2-2-2-2--2-2-2-2-2--2-2-2--|


                                                                
-------------------------------|-------------------------------|
-------------------------------|-------------------------------|
-------------------------------|-------------------------------|
--2-2-2-2-2--2-2-2-2-2--2-2-2--|--2-2-2-2-2--2-2-2-2-2--2-2-2--|


                                                                  
---------------------|---------------------|---------------------|
---------------------|---------------------|---------------------|
---------------------|---------------------|---------------------|
--2------------2--2--|--0------------0--0--|--3------------3--3--|


                                                                
-------------------------------|-------------------------------|
-------------------------------|-------------------------------|
-------------------------------|-------------------------------|
--2-2-2-2-2--2-2-2-2-2--2-2-2--|--2-2-2-2-2--2-2-2-2-2--2-2-2--|


                                                             
-------------------|-------------------|--------------------|
-------------------|-------------------|--------------------|
-------------------|-------------------|---------3----------|
--0----------------|--3----------------|--2-----------------|


                                                                   
----------------------|--------------------|----------------------|
----------------------|--------------------|----------------------|
---------3------5--3--|---------3----------|---------3------5--3--|
--2-------------------|--2-----------------|--2-------------------|


                                                           
-------------------|------------------|-------------------|
-------------------|------------------|-------------------|
-------------------|------------------|-------------------|
--2----------------|------------------|--0----------------|


                                                                  
--------------------------|-------------------|------------------|
--------------------------|-------------------|------------------|
--------------------------|-------------------|------------------|
--0--0--0--0--0--0--0--0--|--2----------------|------------------|


                                               
-------------------|--------------------------|
-------------------|--------------------------|
-------------------|--------------------------|
--0----------------|--0--0--0--0--0--0--0--0--|


                                                                      
----------------------------------|----------------------------------|
----------------------------------|----------------------------------|
----------------------------------|----------------------------------|
--2-2-2-2-2-2-2-2-2-2-2-2-2-2-2-2-|--0-0-0-0-0-0-0-0-0-0-0-0-0-0-0-0-|


                                                                      
----------------------------------|----------------------------------|
----------------------------------|----------------------------------|
--2-2-2-2-2-2-2-2-2-2-2-2-2-2-2-2-|----------------------------------|
----------------------------------|--3-3-3-3-3-3-3-3-3-3-3-3-3-3-3-3-|


                                                                      
----------------------------------|----------------------------------|
----------------------------------|----------------------------------|
----------------------------------|----------------------------------|
--2-2-2-2-2-2-2-2-2-2-2-2-2-2-2-2-|--0-0-0-0-0-0-0-0-0-0-0-0-0-0-0-0-|


                                                                      
----------------------------------|----------------------------------|
----------------------------------|----------------------------------|
--2-2-2-2-2-2-2-2-2-2-2-2-2-2-2-2-|----------------------------------|
----------------------------------|--3-3-3-3-3-3-3-3-3-3-3-3-3-3-3-3-|


                                                                              
-------------------|------------------|-------------------|------------------|
-------------------|------------------|-------------------|------------------|
-------------------|------------------|-------------------|------------------|
--2----------------|------------------|--2----------------|------------------|


                                                                
---------------------|---------------------|-------------------|
---------------------|---------------------|-------------------|
---------------------|---------------------|--5----------------|
--7------7--5--------|--7--------7----7----|-------------------|


                                                                                
------------------|-------------------|-------------------|--------------------|
------------------|-------------------|-------------------|--------------------|
------------------|--9----------------|--7----------------|--------------------|
------------------|-------------------|-------------------|--10----------------|


                                                           
------------------|--------------------|------------------|
------------------|--------------------|------------------|
------------------|--------------------|------------------|
------------------|--10/---------------|------------------|


                                                               
---------------------|--------------------|-------------------|
---------------------|--------------------|-------------------|
---------------------|-----------5/-------|-------------------|
--2--------2--4------|--5-----------------|--0----------------|


                                                              
------------------|---------------------|--------------------|
------------------|---------------------|--------------------|
------------------|---------------------|--4-----------------|
------------------|--2--------2--4------|---------------5----|


                                                             
-------------------|------------------|---------------------|
-------------------|------------------|---------------------|
--5----------------|------------------|---------------------|
-------------------|------------------|--2--------2--4------|


                                                                                
--------------------|-------------------|------------------|-------------------|
--------------------|-------------------|------------------|-------------------|
-----------5/-------|-------------------|------------------|-------------------|
--5-----------------|--0----------------|------------------|--2----------------|


                                                             
-------------------|----------------------------------------|
-------------------|----------------------------------------|
-------------------|--5--5--5--5----5--5--5--5----5----5----|
--2----------------|----------------------------------------|


                                        
-------------------|-------------------|
-------------------|-------------------|
-------------------|-------------------|
--3----------------|--3----------------|


                                                             
----------------------------------------|-------------------|
----------------------------------------|-------------------|
--2--2--2--2----2--2--2--2----2----2----|-------------------|
----------------------------------------|--2----------------|


                                                             
-------------------|----------------------------------------|
-------------------|----------------------------------------|
-------------------|--5--5--5--5----5--5--5--5----5----5----|
--2----------------|----------------------------------------|


                                        
-------------------|-------------------|
-------------------|-------------------|
-------------------|-------------------|
--3----------------|--3----------------|


                                                                                
----------------------------------------|-------------------|------------------|
----------------------------------------|-------------------|------------------|
--2--2--2--2----2--2--2--2----2----2----|-------------------|------------------|
----------------------------------------|--2----------------|------------------|
comments
We did not receive enough feedback on this tab! Please rate:
1 2 3 4 5
I want to post or [tab]
guest
You may want to rate the tab now too:
select rating
Please do not post tabs as comments. Select "correction" instead!