Oops, an error
Loading. Please wait.

And Then There Was Silence Bass Tab

ver1
ver1

Whole song

Interactive

More versions @911Tabs.com
433 views 1 this week
no commentswrite comment
1 2 3 4 5
please rate
Autoscroll
+/-
esc
set tempo
stop
Contributor
WARNING: You are trying to view
                                    content from Ultimate-Guitar.com
                                    in an unauthorized application,
                                    which is prohibited.

                                    Please use an official Ultimate
                                    Guitar Tabs application for iPhone,
                                    iPad or Android to access legitimate
                                    chords, guitar, bass, and drum tabs
                                    from Ultimate-Guitar.com database.

                                    Type "ultimate guitar tabs" in Apple
                                    App Store's or Android Market's
                                    search to find the application.
G||-------------------|------------------|-------------------|
D||-------------------|------------------|-------------------|
A||--0----------------|------------------|--0----------------|
E||-------------------|------------------|-------------------|


                                                                              
------------------|-------------------|------------------|-------------------|
------------------|-------------------|------------------|-------------------|
------------------|--0----------------|------------------|--0----------------|
------------------|-------------------|------------------|-------------------|


                                                                 
------------------|----------------------|----------------------|
------------------|----------------------|----------------------|
------------------|--0---0-----3---0-----|--0---0-----3---2-----|
------------------|----------------------|----------------------|


                                                  
----------------------|--------------------------|
----------------------|-------------0--0---------|
--0---0-----3---0-----|--0---0----0------3--3-2--|
----------------------|--------------------------|


                                                                  
--------------------------------|--------------------------------|
--------------------------------|--------------------------------|
--7-7--5-5----7--5--2--0--------|--7-7--5-5----7--5--2--0--------|
--0-0---------------------3--2--|--0-0---------------------3--2--|


                                                                  
--------------------------------|--------------------------------|
--------------------------------|--------------------------------|
--7-7--5-5----7--5--2--0--------|--7-7--5-5----7--5--2--0--------|
--0-0---------------------3--2--|--0-0---------------------3--2--|


                                         
----------------------------------------|
---------------3-2-0--------------3-5-2-|
--0-0-0--0-0-0-------0-0-0--0-0-0-------|
----------------------------------------|


                                         
----------------------------------------|
--3-3----------3-5-2-3-3----------3-5-2-|
------3--3-3-3-----------3--3-3-3-------|
----------------------------------------|


                                         
----------------------------------------|
---------------3-2-0--------------3-5-2-|
--0-0-0--0-0-0-------0-0-0--0-0-0-------|
----------------------------------------|


                                                               
----------------------------------------|---------------------|
--3-3----------3-5-2-3-3----------3-5-2-|---------------------|
------3--3-3-3-----------3--3-3-3-------|--3---------0--------|
----------------------------------------|-------3-------------|


                                                                  
---------------------|---------------------|---------------------|
---------------------|---------------------|---------------------|
--3---------0--------|--3---------0--------|--3---------0--------|
-------3-------------|-------3-------------|-------3-------------|


                                                                
-------------------------------|-------------------------------|
--0--0-0-0-0--0-0-0-0----2-----|--0--0-0-0-0--0-0-0-0----2-----|
----------------------------3--|----------------------------3--|
-------------------------------|-------------------------------|


                                                                
-------------------------------|-------------------------------|
--0--0-0-0-0--0-0-0-0----2-----|--0--0-0-0-0--0-0-0-0----2-----|
----------------------------3--|----------------------------3--|
-------------------------------|-------------------------------|


                                           
------------------------------------------|
------------------------------------------|
------------------------------------------|
--5-6-3-5-5-6-3-5-3-1-5-6-3-5-5-6-3-5-3-1-|


                                                                           
------------------------------------------|-------------------------------|
------------------------------------------|-------------------------------|
------------------------------------------|--5--x-x-x-x-x-x-x-x-x-x-3--6--|
--5-6-3-5-5-6-3-5-3-1-5-6-3-5-5-6-3-5-3-1-|-------------------------------|


                                                                
-------------------------------|-------------------------------|
-------------------------------|-------------------------------|
--5--x-x-x-x-x-x-x-x-x-x-3--6--|--5--x-x-x-x-x-x-x-x-x-x-3--6--|
-------------------------------|-------------------------------|


                                
-------------------------------|
-------------------------------|
--5--x-x-x-x-x-x-x-x-x-x-3--6--|
-------------------------------|


                                                   
--------------------------------------------------|
--0-0-0-0-0-0-0-0-0-1-1-1-1-1-1-------------------|
--------------------------------3-3-3-3-3-3-3-3-3-|
--------------------------------------------------|


                                                   
--------------------------------------------------|
--------0-0-0-0-0-0-0-0-0-1-1-1-1-1-1-------------|
--1-1-1-------------------------------3-3-3-3-3-3-|
--------------------------------------------------|


                                                                      
----------------------------------|----------------------------------|
--0-1-0-0-0-0-0-1-1-1-1-----------|----------0-0-0-0-0-1-1-1-1-3-3-3-|
------------------------3-3-3-1-1-|--0-0-1-0-------------------------|
----------------------------------|----------------------------------|


                                                                          
----------------------------------------|--------------------------------|
--3-1-0-1-3-1-0-1-----------------------|--------------------------------|
------------------5-3-5--5-3-5--5-3-5-6-|----------5-3-5--5-3-5--5-3-5-6-|
----------------------------------------|--------------------------------|


                                                                  
--------------------------------|--------------------------------|
--------------------------------|--------------------------------|
----------5-3-5--5-3-5--5-3-5-6-|----------5-3-5--5-3-5--5-3-5-6-|
--------------------------------|--------------------------------|


                                                                       
-------------------------------|--------------------------------------|
-----------------------------3-|------------------------------------3-|
----------5--5-3-5-6-5-5-3-5---|---5-5-3-5-3--6--5--5-3-5-6-5-5-3-5---|
-------------------------------|--------------------------------------|


                                                                              
--------------------------------------|--------------------------------------|
------------------------------------3-|------------------------------------3-|
---5-5-3-5-3--6--5--5-3-5-6-5-5-3-5---|---5-5-3-5-3--6--5--5-3-5-6-5-5-3-5---|
--------------------------------------|--------------------------------------|


                                                                 
--------------------------|------------------|------------------|
-----------------0--------|------------------|------------------|
---5-5-3-5-3--6-----------|------------------|------------------|
--------------------------|------------------|------------------|


                                                                              
-------------------|------------------|-------------------|------------------|
--0----------------|------------------|--0----------------|------------------|
-------------------|------------------|-------------------|------------------|
-------------------|------------------|-------------------|------------------|


                                                                              
-------------------|------------------|-------------------|------------------|
--0----------------|------------------|--0----------------|------------------|
-------------------|------------------|-------------------|------------------|
-------------------|------------------|-------------------|------------------|


                                                           
-------------------|------------------|-------------------|
--0----------------|------------------|--0----------------|
-------------------|------------------|-------------------|
-------------------|------------------|-------------------|


                                                  
-------------------7--|-----3--2--0-----------7--|
----------0--0--0--0--|--0-----------0--0--0-----|
----------------------|--------------------------|
----------------------|--------------------------|


                                                               
-----3--2--0------------------|------3--2--0------------------|
--0--0--0--0--0-0-0-0-0-0-0-0-|--0-0----------0-0-0-0-0-0-0-0-|
------------------------------|-------------------------------|
------------------------------|-------------------------------|


                                       
-----3--2--0--------------------------|
--0--0--0--0--------------------------|
--------------------------------------|
--------------1-1-1-1-1-1-1-1-1-1-1-1-|


                                                   
--------------------------------------------------|
--------------------------------------------------|
--------------------------------------------------|
--1-1-1-1-1-1-1-1-1-1-1-1-1-1-1-1-1-1-1-1-1-1-1-1-|


                                                   
--------------------------------------------------|
--------------------------------------------------|
--------------------------------------------------|
--1-1-1-1-1-1-1-1-1-1-1-1-1-1-1-1-1-1-1-1-1-1-1-1-|


                                                   
--------------------------------------------------|
--------------------------------------------------|
--------------------------------------------------|
--1-1-1-1-1-1-1-1-1-1-1-1-1-1-1-1-1-1-1-1-1-1-1-1-|


                                                                        
-----------------------------------|-----------------------------------|
-----------------------------------|-----------------------------------|
-----------------------------------|-----------------------------------|
--1-1-1-1-1-1-1-1-1-1-1-1-4--------|--1-1-1-1-1-1-1-1-1-1-1-1-4--------|


                                                                              
------------------------------------------|----------------------------------|
------------------------------------------|----------------------------------|
--------------------------1-1-1-1-1-1-1-1-|------------------4-4-4-4-4-4-4-4-|
--1-1-1-1-1-1-1-1-1-1-1-1-----------------|--1-1-1-1-1-1-1-1-----------------|


                                                                           
---------------------------|-------------------|--------------------------|
--1-1-1-1-1-1-1-1----------|-------------------|----------3-3-3-3-1-1-1-1-|
---------------------------|----------4--------|--------------------------|
------------------1--------|-------------------|--------------------------|


                                                                      
----------------------------------|----------------------------------|
--3-3-3-3-3-3-3-3-3-3-3-3---------|--1-1-1-1-1-1-1-1---------1-1-1-1-|
--------------------------4-4-4-4-|----------------------------------|
----------------------------------|------------------4-4-4-4---------|


                                                                    
-------------------------------|-----------------------------------|
-------------------------------|--1--------1-1-1-1-1-1-1-1-1-1-1-1-|
-----------------------4--4--4-|-----------------------------------|
--1-1-1-1-1-1-1-1-1--1---------|-----------------------------------|


                                             
--------------0-0-0-0-1-1-------------------|
--2-2-2-2-2-2-------------3--3--3-3-3-3-3-3-|
--------------------------------------------|
--------------0-0-0-0-0-0-------------------|


                                                                       
--------------------------------------|-------------------------------|
--3--3--3-3-3-3-3-3-------------------|--1--1--1-1-1-1-1-1-3--3--3----|
--------------------4--4--4-4-4-4-4-4-|--1--1--1-1-1-1-1-1------------|
--------------------------------------|-------------------------------|


                                                           
----------------------|-----------------------------------|
--3--3--3-------------|--1--------1-1-1-1-1-1-1-1-1-1-1-1-|
-------------4--------|--1--------------------------------|
----------------------|-----------------------------------|


                                                                               
-----------------------------------|--------------------|---------------------|
--2-2-2-2-2-2-2-2-2-2-2-2-0--------|-----------0--------|------------0--------|
-----------------------------------|--1-----------------|--1------------------|
-----------------------------------|--------------------|-------3-------------|


                                                          
--------------------|------------------------------------|
-----------0--------|------------0-0-0-0-0-0-0-0-0-0-0-0-|
--1-----------------|--1---------------------------------|
--------------------|-------3----------------------------|


                                                   
--------------------------------------------------|
--0-0-0-0-0-0-0-0-0-0-0-0-0-0-0-0-0-0-0-0-0-0-0-0-|
--------------------------------------------------|
--------------------------------------------------|


                                                   
--------------------------------------------------|
--0-0-0-0-0-0-0-0-0-0-0-0-0-0-0-0-0-0-0-0-0-0-0-0-|
--------------------------------------------------|
--------------------------------------------------|


                                                   
--------------------------------------------------|
--0-0-0-0-0-0-0-0-0-0-0-0-0-0-0-0-0-0-0-0-0-0-0-0-|
--------------------------------------------------|
--------------------------------------------------|


                                                                              
-----------------------------------|--------------------|--------------------|
--0-0-0-0-0-0-0-0-0-0-0-0-0--------|--------------------|-----------0--------|
-----------------------------------|--1--------2--------|--3-----------------|
-----------------------------------|--------------------|--------------------|


                                                                       
--------------------|----------------------|--------------------------|
--------------------|------------0-------0-|--------3-2-0---0-------0-|
--1-----------------|----------------------|--1---1-------3-----------|
-----------3--------|--1----0--------------|--------------------------|


                                                      
--------------------------|--------0-----------------|
--------3-2-0---0-------0-|----------3-0---0-------0-|
--1---1-------3-----------|--1---1-------3-----------|
--------------------------|--------------------------|


                                                                 
-------------------------------|--------------------------------|
--------3-2-0---0--0-0-0-0-----|-----------------0--0-0-0-0-----|
--1---1-------3-------------3--|--1--1-1-1-1--3--------------3--|
-------------------------------|--------------------------------|


                                                                  
--------------------------------|--------------------------------|
-----------------0--0-0-0-0-----|-----------------0--0-0-0-0-----|
--1--1-1-1-1--3--------------3--|--1--1-1-1-1--3--------------3--|
--------------------------------|--------------------------------|


                                                                         
-----------------------------|--------------------|---------------------|
--------------------0--------|-----------0--------|------------0--------|
--1-1-1-1-1-1-1--3-----------|--1-----------------|--3---1--------------|
-----------------------------|--------------------|---------------------|


                                                                          
--------------------|-------------7--7--7--7--|--7--7--7--7--7--7--7--7--|
-----------0--------|-------------------------|--------------------------|
--1-----------------|--3---1---3--------------|--------------------------|
--------------------|-------------------------|--------------------------|


                                                      
--7--7--7--7--7--7--7--7--|--7--7--7--7--7--7--7--7--|
--------------------------|--------------------------|
--------------------------|--------------------------|
--------------------------|--------------------------|


                                                      
--7--7--7--7--------------|--------------------------|
--------------0--0--0--0--|--0--0--0--0--0--0--0--0--|
--------------0--0--0--0--|--0--0--0--0--0--0--0--0--|
--------------------------|--------------------------|


                                       
--------------------------------------|
--0--0--0--0--------------------------|
--0--0--0--0--------------------------|
--------------3-3-3-3-3-3-3-3-3-3-3-3-|


                                                   
--------------------------------------------------|
--------------------------------------------------|
--------------------------------------------------|
--3-3-3-3-3-3-3-3-3-3-3-3-3-3-3-3-3-3-3-3-3-3-3-3-|


                                                                  
--------------------------------------|--------------------------|
--------------------------0--0--0--0--|--0--0--0--0--0--0--0--0--|
--------------------------0--0--0--0--|--0--0--0--0--0--0--0--0--|
--3-3-3-3-3-3-3-3-3-3-3-3-------------|--------------------------|


                                       
--------------------------------------|
--0--0--0--0--------------------------|
--0--0--0--0--------------------------|
--------------3-3-3-3-3-3-3-3-3-3-3-3-|


                                                   
--------------------------------------------------|
--------------------------------------------------|
--------------------------------------------------|
--3-3-3-3-3-3-3-3-3-3-3-3-3-3-3-3-3-3-3-3-3-3-3-3-|


                                                
-----------------------------------------------|
-----------------------------------------------|
--------------------------0--0-0-0-0-0-0-0-0-0-|
--3-3-3-3-3-3-3-3-3-3-3-3-0--0-0-0-0-0-0-0-0-0-|


                                          
-----------------------------------------|
-----------------------------------------|
--0--0-0-0-0-0-0-0--0--0-0-0-0-0-0-0-0-0-|
--0--0-0-0-0-0-0-0--0--0-0-0-0-0-0-0-0-0-|


                                             
--------------------------------------------|
--------------------------------------------|
--0--0-0-0-0-0-0-0--x-x-x-x-x-x-x-x-x-x-x-x-|
--0--0-0-0-0-0-0-0--3-3-3-3-3-3-3-3-3-3-3-3-|


                                                   
--------------------------------------------------|
--------------------------------------------------|
--x-x-x-x-x-x-x-x-x-x-x-x-x-x-x-x-x-x-x-x-x-x-x-x-|
--3-3-3-3-3-3-3-3-3-3-3-3-3-3-3-3-3-3-3-3-3-3-3-3-|


                                                                              
-----------------------------------------|-----------------------------------|
--------------------------0--0--0--0-0-0-|--0--0--0-0-0-0-0-0-0--0--0--0-0-0-|
--x-x-x-x-x-x-x-x-x-x-x-x-0--0--0--0-0-0-|--0--0--0-0-0-0-0-0-0--0--0--0-0-0-|
--3-3-3-3-3-3-3-3-3-3-3-3----------------|-----------------------------------|


                                                                        
-----------------------------------|-----------------------------------|
--0--0--0-0-0-0-0-0----------------|-----------------------------------|
--0--0--0-0-0-0-0-0-5--5--5--5-5-5-|--5--5--5-5-5-5-5-5-5--5--5--5-5-5-|
--------------------3--3--3--3-3-3-|--3--3--3-3-3-3-3-3-3--3--3--3-3-3-|


                                                                           
------------------------------|----------------------|--------------------|
------------------------------|-------0--------------|--0-----------------|
--5--5--5-5-5-5-5-5------0----|--1---------3----3----|-------1------------|
--3--3--3-3-3-3-3-3-3---------|----------------------|--------------------|


                                                                            
------------------|------------------|------------------|------------------|
------------------|------------------|------------------|------------------|
------------------|------------------|------------------|------------------|
------------------|------------------|------------------|------------------|


                                                           
------------------|-------------------|-------------------|
------------------|-------------------|-------------------|
------------------|-------------------|--4----------------|
------------------|--1----------------|-------------------|


                                                                      
----------------------------------|----------------------------------|
--3-3-3-3-1-1-1-1-3-3-3-3-3-3-3-3-|--3-3-3-3---------1-1-1-1-1-1-1-1-|
----------------------------------|----------4-4-4-4-----------------|
----------------------------------|----------------------------------|


                                                            
----------------------------------|------------------------|
----------1-1-1-1-----------------|---------------1--------|
----------------------------------|-------4--4--4----------|
--4-4-4-4---------1-1-1-1-1-1-1-1-|--1--1------------------|


                                                   
--------------------------------------0-0-0-0-1-1-|
--1-1-1-1-1-1-1-1-1-1-1-1-2-2-2-2-2-2-------------|
--------------------------------------------------|
--------------------------------------0-0-0-0-0-0-|


                                                                              
--------------------------------------|--------------------------------------|
--3--3--3-3-3-3-3-3-3--3--3-3-3-3-3-3-|--------------------1--1--1-1-1-1-1-1-|
--------------------------------------|--4--4--4-4-4-4-4-4-1--1--1-1-1-1-1-1-|
--------------------------------------|--------------------------------------|


                                              
------------------------|--------------------|
--3--3--3----3--3--3----|-----------1--------|
------------------------|--4--------1--------|
------------------------|--------------------|


                                                   
--------------------------------------------------|
--1-1-1-1-1-1-1-1-1-1-1-1-2-2-2-2-2-2-2-2-2-2-2-2-|
--------------------------------------------------|
--------------------------------------------------|


                                                           
----------------------------------------------------------|
--3-3-3-3-3-3-3-3-3-3-3-3-3-3-----------------------------|
------------------------------4-4-4-4-4-4-4-4-4-4-4-4-4-4-|
----------------------------------------------------------|


                                        
---------------------------------------|
--0-0-0-0-0-0-0-0-0-0-0-0-0-0-1--------|
---------------------------------------|
---------------------------------------|


                                                           
----------------------------------------------------------|
--3-3-3-3-3-3-3-3-3-3-3-3-3-3-----------------------------|
------------------------------4-4-4-4-4-4-4-4-4-4-4-4-4-4-|
----------------------------------------------------------|


                                                                         
---------------------------------------|--------------------------------|
--0-0-0-0-0-0-0-0-0-0-0-0-0-0-1--------|--3-3--3-3-3-3-3----------------|
---------------------------------------|-----------------4-4--4-4-4-4-4-|
---------------------------------------|--1-1--1-1-1-1-1----------------|


                                                                   
---------------------------------|--------------------------------|
--0-0--0-0-0-0-0-1-1-1-1-1-1-1-2-|--3-3--3-3-3-3-3----------------|
---------------------------------|-----------------4-4--4-4-4-4-4-|
---------------------------------|--1-1--1-1-1-1-1----------------|


                                                                         
---------------------------------|-------------------|------------------|
--0-0--0-0-0-0-0-1-1-1-1-1-1-1-2-|--3----------------|------------------|
---------------------------------|-------------------|------------------|
---------------------------------|--1----------------|------------------|


                                                                         
------------------|------------------|----------------------------------|
------------------|------------------|----------------------------------|
------------------|------------------|----------------------------------|
------------------|------------------|--1-1-1-1-1-1-1-1-1-1-1-1-1-1-1-1-|


                                                                           
----------------------------------|-------------------|-------------------|
--3-3-3-3-3-3-3-3-3-3-3-3-3-3-3-3-|-------------------|-------------------|
----------------------------------|--4----------------|--4----------------|
--1-1-1-1-1-1-1-1-1-1-1-1-1-1-1-1-|--4----------------|--6----------------|


                                                                              
--------------------------------------|--------------------------------------|
--------------------------------------|--------------------------------------|
--------------------------------------|--1-1-1-1-1-1-1-1-1--1-1-1-1-1-1-3-1--|
--1-1-1-1-1-1-1-1-1--1-1-1-1-1-1-3-1--|--------------------------------------|


                                                              
---------------------|-------------------|-------------------|
---------------------|-------------------|-------------------|
--1------------------|-------------------|-------------------|
-------4----2--------|--1----------------|--1----------------|


                                                                 
---------------------|------------3-3-3-3-3-1-1-1-1-1-----------|
---------------------|--3-3-3-3-3---------------------1-1-1-1-1-|
--4----3----1--------|------------------------------------------|
---------------------|------------------------------------------|


                                           
------------3-3-3-3-3-1-1-1-1-1-----------|
--3-3-3-3-3---------------------1-1-1-1-1-|
------------------------------------------|
------------------------------------------|


                                           
------------3-3-3-3-3-1-1-1-1-1-----------|
--3-3-3-3-3---------------------1-1-1-1-1-|
------------------------------------------|
------------------------------------------|


                                                                             
------------3-3-3-3-3-1-1-1-1-1-----------|-------------------------1-1-1-1-|
--3-3-3-3-3---------------------1-1-1-1-1-|--3--3-3-3-3-1-1-1-1-1-1---------|
------------------------------------------|---------------------------------|
------------------------------------------|---------------------------------|


                                                                      
--1-1-----------------------------|----------------------------------|
------1-1-1-1-1-1-------------3-3-|--3-3-3-3-1-1-1-1-1-1-1-1-1-1-1-1-|
------------------4-4-4-4-4-4-----|----------------------------------|
----------------------------------|----------------------------------|


                                                                      
--------------------------1-1-1-1-|--1-1-----------------------------|
--3-3-3-3-3-3-1-1-1-1-1-1---------|------1-1-1-1-1-1-----------------|
----------------------------------|------------------4-4-4-4-4-4-4-4-|
----------------------------------|----------------------------------|


                                                           
----------1-------------|-------------------------1-1-1-1-|
-----------------1------|--3--3-3-3-3-1-1-1-1-1-1---------|
--4-4-4-4---------------|---------------------------------|
------------------------|---------------------------------|


                                                                      
--1-1-----------------------------|----------------------------------|
------1-1-1-1-1-1-------------3-3-|--3-3-3-3-1-1-1-1-1-1-1-1-1-1-1-1-|
------------------4-4-4-4-4-4-----|----------------------------------|
----------------------------------|----------------------------------|


                                                                      
--------------------------1-1-1-1-|--1-1-----------------------------|
--3-3-3-3-3-3-1-1-1-1-1-1---------|------1-1-1-1-1-1-----------------|
----------------------------------|------------------4-4-4-4-4-4-4-4-|
----------------------------------|----------------------------------|


                                                                      
----------1-------------|-------1--------------|-------1-------------|
-----------------1------|--3---------1---------|--3---------1--------|
--4-4-4-4---------------|-----------------4----|---------------------|
------------------------|----------------------|---------------------|


                                                                 
-------1--------------|-------1-------------|-------------------|
--3---------1---------|--3---------1--------|-------------------|
-----------------4----|---------------------|-------------------|
----------------------|---------------------|--1----------------|


                                                       
-------------------|----------------------------------|
-------------------|--3-3-3-3-1-1-1-1-3-3-3-3-3-3-3-3-|
--4----------------|----------------------------------|
-------------------|----------------------------------|


                                                                      
----------------------------------|----------------------------------|
--3-3-3-3---------1-1-1-1-1-1-1-1-|----------1-1-1-1-----------------|
----------4-4-4-4-----------------|----------------------------------|
----------------------------------|--4-4-4-4---------1-1-1-1-1-1-1-1-|


                                                                            
------------------------|--------------------------------------0-0-0-0-1-1-|
---------------1--------|--1-1-1-1-1-1-1-1-1-1-1-1-2-2-2-2-2-2-------------|
-------4--4--4----------|--------------------------------------------------|
--1--1------------------|--------------------------------------0-0-0-0-0-0-|


                                                                              
--------------------------------------|--------------------------------------|
--3--3--3-3-3-3-3-3-3--3--3-3-3-3-3-3-|--------------------1--1--1-1-1-1-1-1-|
--------------------------------------|--4--4--4-4-4-4-4-4-1--1--1-1-1-1-1-1-|
--------------------------------------|--------------------------------------|


                                              
------------------------|--------------------|
--3--3--3----3--3--3----|-----------1--------|
------------------------|--4--------1--------|
------------------------|--------------------|


                                                                          
--------------------------------------------------|----------------------|
--1-1-1-1-1-1-1-1-1-1-1-1-2-2-2-2-2-2-2-2-2-2-2-2-|--3----1----0---------|
--------------------------------------------------|-----------------1----|
--------------------------------------------------|----------------------|


                                                                 
--------------------|----------------------|--------------------|
--------------------|--3----1----0---------|--------------------|
----------1----3----|-----------------1----|----------1----3----|
--------------------|----------------------|--------------------|


                                                                  
----------------------|------------------------------------------|
--3----1----0---------|------------------------------------------|
-----------------1----|----------1-1-1-1-1-1-1-1-3-3-3-3-3-3-3-3-|
----------------------|------------------------------------------|


                                                                  
----------------------|------------------------------------------|
--3----1----0---------|------------------------------------------|
-----------------1----|----------1-1-1-1-1-1-1-1-3-3-3-3-3-3-3-3-|
----------------------|------------------------------------------|


                                                                
--------------------|---------------------|--------------------|
--3-----------------|-----------1---------|--3-----------------|
-----------3--------|--4-------------4----|-----------3--------|
--------------------|---------------------|--------------------|


                                                                 
---------------------|--------------------|---------------------|
-----------1---------|--3-----------------|-----------1---------|
--4-------------4----|-----------3--------|--4-------------4----|
---------------------|--------------------|---------------------|


                                                                
--------------------|---------------------|--------------------|
--3-----------------|-----------1---------|--3-----------------|
-----------3--------|--4-------------4----|-----------3--------|
--------------------|---------------------|--------------------|


                                                                 
---------------------|--------------------|---------------------|
-----------1---------|--3-----------------|-----------1---------|
--4-------------4----|-----------3--------|--4-------------4----|
---------------------|--------------------|---------------------|


                                                                
--------------------|---------------------|--------------------|
--3-----------------|-----------1---------|--3-----------------|
-----------3--------|--4-------------4----|-----------3--------|
--------------------|---------------------|--------------------|


                                                                 
---------------------|--------------------|---------------------|
-----------1---------|--3-----------------|-----------1---------|
--4-------------4----|-----------3--------|--4-------------4----|
---------------------|--------------------|---------------------|


                                                                
--------------------|---------------------|--------------------|
--3-----------------|-----------1---------|--3-----------------|
-----------3--------|--4-------------4----|-----------3--------|
--------------------|---------------------|--------------------|


                                                                 
---------------------|--------------------|---------------------|
-----------1---------|--3-----------------|-----------1---------|
--4-------------4----|-----------3--------|--4-------------4----|
---------------------|--------------------|---------------------|


                                                                
--------------------|---------------------|--------------------|
--3-----------------|-----------1---------|--3-----------------|
-----------3--------|--4-------------4----|-----------3--------|
--------------------|---------------------|--------------------|


                                                                 
---------------------|--------------------|---------------------|
-----------1---------|--3-----------------|-----------1---------|
--4-------------4----|-----------3--------|--4-------------4----|
---------------------|--------------------|---------------------|


                                                                
--------------------|---------------------|--------------------|
--3-----------------|-----------1---------|--3-----------------|
-----------3--------|--4-------------4----|-----------3--------|
--------------------|---------------------|--------------------|


                              
---------------------|------||
-----------1---------|------||
--4-------------4----|------||
---------------------|------||
comments
We did not receive enough feedback on this tab! Please rate:
print report bad tab
1 2 3 4 5
I want to post or [tab]
guest
You may want to rate the tab now too:
select rating
Please do not post tabs as comments. Select "correction" instead!