Oops, an error
Loading. Please wait.

Blood Tears Bass Tab

247 views 1 this week
no commentswrite comment
1 2 3 4 5
please rate
Autoscroll
+/-
esc
set tempo
stop
Contributor
WARNING: You are trying to view
                                    content from Ultimate-Guitar.com
                                    in an unauthorized application,
                                    which is prohibited.

                                    Please use an official Ultimate
                                    Guitar Tabs application for iPhone,
                                    iPad or Android to access legitimate
                                    chords, guitar, bass, and drum tabs
                                    from Ultimate-Guitar.com database.

                                    Type "ultimate guitar tabs" in Apple
                                    App Store's or Android Market's
                                    search to find the application.
Tune Down

F#||------------------|------------------|------------------|------------------|
C#||------------------|------------------|------------------|------------------|
G#||------------------|------------------|------------------|------------------|
D#||------------------|------------------|------------------|------------------|


                                                                              
------------------|------------------|------------------|--------------------|
------------------|------------------|------------------|----------15/-------|
------------------|------------------|------------------|--------------------|
------------------|------------------|------------------|--------------------|


                                                              
--------------------|-------------------|--------------------|
--------------------|-------------------|--------------------|
--5--------------0--|--5----------------|--5--------------0--|
--------------------|-------------------|--------------------|


                                                                  
-------------------|----------------------|----------------------|
-------------------|----------------------|----------------------|
--5----------------|----------------------|--4------4--6------6--|
-------------------|--6------6--8------8--|----------------------|


                                                                               
----------------------|----------------------|--------------------------------|
--4------4--4------4--|--4------4--4------4--|--15-10-------------------------|
----------------------|----------------------|--------12----------14b-14------|
----------------------|----------------------|------------13--------------15--|


                                                                             
--------------------------------|---------------------|---------------------|
--15-10-------------------------|---------------------|---------------------|
--------12----------14b-14------|--5-------------8----|--5-------------8----|
------------13--------------15--|-----------6---------|-----------6---------|


                                                                  
---------------------|---------------------|---------------------|
---------------------|---------------------|---------------------|
--5-------------8----|--5-------------8----|---------------------|
-----------6---------|-----------6---------|--5------5--8--------|


                                                                   
----------------------|----------------------|--------------------|
----------------------|----------------------|--------------------|
----------5-----------|------------5----5----|--------------------|
--6----6-----------5--|--6----6--------------|--8--------8--------|


                                                                    
---------------------|----------------------|----------------------|
---------------------|----------------------|----------------------|
---------------------|----------5-----------|----------5------5----|
--5------5--8--------|--6----6-----------5--|--6----6--------------|


                                                                        
-----------------------|--14--------------------|----------------------|
-----------------------|------------14----------|------------10/-------|
---------10------8--7--|-------------------15---|--12/-----------------|
--8--------------------|------------------------|----------------------|


                                              
--------------------|------------5-----------|
-----------5/-------|---------5-----5--7-----|
--------------------|---------------------8--|
--6-----------------|--3---------------------|


                                                                   
------------------------5t----7t--|-------------------------------|
------------------7t--------------|------------------------3t-----|
--5-5-5-5-5-5-5-5---5-5---5-5---5-|------------------3t--------6t-|
----------------------------------|--4-4-4-4-4-4-4-4---4-4--------|


                                                                   
------------------------5t----7t--|-------------------------------|
------------------7t--------------|------------------------3t-----|
--5-5-5-5-5-5-5-5---5-5---5-5---5-|------------------3t--------6t-|
----------------------------------|--4-4-4-4-4-4-4-4---4-4--------|


                                                                      
----------------------------------|----------------------------------|
----------------------------------|----------------------------------|
--5-5-5-5-5-5-5-5-5-5-5-5-5-5-5-5-|----------------------------------|
----------------------------------|--4-4-4-4-4-4-4-4-4-4-4-4-4-4-4-4-|


                                                                      
----------------------------------|----------------------------------|
----------------------------------|----------------------------------|
--5-5-5-5-5-5-5-5-5-5-5-5-5-5-5-5-|----------------------------------|
----------------------------------|--4-4-4-4-4-4-4-4-4-4-4-4-4-4-4-4-|


                                                                      
----------------------------------|----------------------------------|
----------------------------------|----------------------------------|
--5-5-5-5-5-5-5-5-5-5-5-5-5-5-5-5-|--5-5-5-5-5-5-5-5-5-5-5-5-5-5-5-5-|
----------------------------------|----------------------------------|


                                                                      
----------------------------------|----------------------------------|
----------------------------------|----------------------------------|
--5-5-5-5-5-5-5-5-5-5-5-5-5-5-5-5-|--5-5-5-5-5-5-5-5-5-5-5-5-5-5-5-5-|
----------------------------------|----------------------------------|


                                                                    
---------------------|----------------------|----------------------|
---------------------|----------------------|----------------------|
---------------------|----------5-----------|----------5------5----|
--5------5--8--------|--6----6-----------5--|--6----6--------------|


                                                                  
--------------------|---------------------|----------------------|
--------------------|---------------------|----------------------|
--------------------|---------------------|----------5-----------|
--8--------8--------|--5------5--8--------|--6----6-----------5--|


                                                                 
----------------------|--------------------|--------------------|
----------------------|--------------------|--------------------|
----------5------5----|--------------------|--5-----------------|
--6----6--------------|--8--------8--------|---------------5----|


                                                             
-------------------|--------------------|-------------------|
-------------------|--------------------|-------------------|
-------------------|--5-----------------|-------------------|
--4----------------|---------------5----|--4----------------|


                                                                       
------------------------|------------------------|--------------------|
--------------------7---|--------------------7---|--------------------|
--5------5----5-7-8-----|--5------5----5-7-8-----|--5------5----------|
------------------------|------------------------|--------------------|


                                                                             
----------------------|--------------------------|--------------------------|
----------------------|--------------------------|--------------------------|
--5------5------5-----|--------------------------|--------------------------|
------------------5---|--6--6--6--6--6--6--6--6--|--6--6--6--6--6--6--6--6--|


                                                                              
----------------------------------|------------------------------------------|
--4-4-4-4-4-4-4-4-6-6-6-6-6-6-6-6-|--8-8-8-8-8-8-8-8-10-10-10-10-10-10-10-10-|
----------------------------------|------------------------------------------|
----------------------------------|------------------------------------------|


                                                      
--------------------------|--------------------------|
--3-----------------------|--3-----------------------|
----3-----------2-3-2-----|----3-----------2-3-2-----|
------5--1-------------3--|------5--1-------------3--|


                                                      
--------------------------|--------------------------|
--3-----------------------|--3-----------------------|
----3-----------2-3-2-----|----3-----------2-3-2-----|
------5--1-------------3--|------5--1-------------3--|


                                                                      
----------------------------------|----------------------------------|
--------------------------5---5---|--------------------------5---5---|
--5-5-5-5-8-5-8-5-----------5---5-|--5-5-5-5-8-5-8-5-----------5---5-|
------------------6-6-6-6---------|------------------6-6-6-6---------|


                                                                      
----------------------------------|----------------------------------|
--------------------------5---5---|--------------------------5---5---|
--5-5-5-5-8-5-8-5-----------5---5-|--5-5-5-5-8-5-8-5-----------5---5-|
------------------6-6-6-6---------|------------------6-6-6-6---------|


                                                            
-----------------------------|-----------------------------|
-----------------------------|-----------------------------|
--5--5-5-5--5-5--------------|--5--5-5-5--5-5--------------|
----------------6--6-6-5--3--|----------------3--3-3-6--8--|


                                                            
-----------------------------|-----------------------------|
-----------------------------|-----------------------------|
--5--5-5-5--5-5--------------|--5--5-5-5--5-5--------------|
----------------6--6-6-5--3--|----------------6--6-6-5--3--|


                                                                      
----------------------------------|----------------------------------|
----------------------------------|----------------------------------|
--5-5-5-5-5-5-5-5-----------------|----------------------------------|
------------------8-8-8-8-8-8-8-8-|--6-6-6-6-6-6-6-6-6-6-6-6-6-6-6-6-|


                                                                      
----------------------------------|----------------------------------|
----------------------------------|----------------------------------|
--5-5-5-5-5-5-5-5-----------------|----------------------------------|
------------------8-8-8-8-8-8-8-8-|--9-6-6-9-6-6-9-6-9-6-6-9-6-6-9-6-|


                                                                           
----------------------------------|---------------------------------------|
----------------------------------|-----------------------------10---11---|
--------------------------6---8---|--13-9-9-13-9-9-13-9-9-9-9-9----9----9-|
--9-6-6-9-6-6-9-6-9-6-6-9---6---6-|---------------------------------------|


                                                                
------------------------------------|--------------------------|
--11---11---13---13-13-13-13-13-15--|--3-----------------------|
------------------------------------|----3-----------2-3-2-----|
------------------------------------|------5--1-------------3--|


                                                      
--------------------------|--------------------------|
--3-----------------------|--3-----------------------|
----3-----------2-3-2-----|----3-----------2-3-2-----|
------5--1-------------3--|------5--1-------------3--|


                                                              
--------------------------|----------------------------------|
--3-----------------------|----------------------------------|
----3-----------2-3-2-----|--5-5-5-5-5-5-5-5-5-5-5-5-5-5-5-5-|
------5--1-------------3--|----------------------------------|


                                                                      
----------------------------------|----------------------------------|
----------------------------------|----------------------------------|
--5-5-5-5-5-5-5-5-5-5-5-5-5-5-5-5-|--5-5-5-5-5-5-5-5-5-5-5-5-5-5-5-5-|
----------------------------------|----------------------------------|


                                                                                
----------------------------------|---------------------|----------------------|
----------------------------------|---------------------|----------------------|
--5-5-5-5-5-5-5-5-5-5-5-5-5-5-5-5-|---------------------|----------5-----------|
----------------------------------|--5------5--8--------|--6----6-----------5--|


                                                                  
----------------------|--------------------|---------------------|
----------------------|--------------------|---------------------|
----------5------5----|--------------------|---------------------|
--6----6--------------|--8--------8--------|--5------5--8--------|


                                                                   
----------------------|----------------------|--------------------|
----------------------|----------------------|--------------------|
----------5-----------|----------5------5----|--------------------|
--6----6-----------5--|--6----6--------------|--8--------8--------|


                                                                    
---------------------|----------------------|----------------------|
---------------------|----------------------|----------------------|
---------------------|----------5-----------|----------5------5----|
--5------5--8--------|--6----6-----------5--|--6----6--------------|


                                                                     
--------------------------|--------------------|--------------------|
----------7----10--5------|--------------------|--------------------|
---------------------8-7--|--5-----------------|--5--------8--------|
--8----8------------------|-----------------5--|--------------------|


                                                               
--------------------|--------------------|--------------------|
--------------------|--------------------|--------------------|
--------------------|--------------------|--5-----------------|
--6------------8----|--3--------5--------|-----------------5--|


                                                               
--------------------|--------------------|--------------------|
--------------------|--------------------|--------------------|
--5--------8--------|--------------------|--------------------|
--------------------|--6------------8----|--3--------5--------|


                                                               
------------7---------|-------------------|------------------||
---------7-------7----|-------------------|------------------||
--5-------------------|--5----------------|------------------||
----------------------|-------------------|------------------||
comments
We did not receive enough feedback on this tab! Please rate:
print report bad tab
1 2 3 4 5
I want to post or [tab]
guest
You may want to rate the tab now too:
select rating
Please do not post tabs as comments. Select "correction" instead!