Oops, an error
Loading. Please wait.

Born In A Mourning Hall Bass Tab

520 views 6 this week
no commentswrite comment
1 2 3 4 5
excellent!
x 1
Autoscroll
+/-
esc
set tempo
stop
Contributor
WARNING: You are trying to view
                                    content from Ultimate-Guitar.com
                                    in an unauthorized application,
                                    which is prohibited.

                                    Please use an official Ultimate
                                    Guitar Tabs application for iPhone,
                                    iPad or Android to access legitimate
                                    chords, guitar, bass, and drum tabs
                                    from Ultimate-Guitar.com database.

                                    Type "ultimate guitar tabs" in Apple
                                    App Store's or Android Market's
                                    search to find the application.
F#||------------------------------|------------------------------|
C#||------------------------------|------------------------------|
G#||------------------------------|------------------------------|
D#||--0--0--0-0-0-0-0--0--0-0-0-0-|--0--0--0-0-0-0-0--0--0-0-0-0-|


                                                              
------------------------------|------------------------------|
------------------------------|------------------------------|
------------------------------|--7------6------5------3------|
--0--0--0-0-0-0-0--0--0-0-0-0-|-----0-0----0-0----0-0----0-0-|


                                                              
------------------------------|------------------------------|
------------------------------|------------------------------|
------------------------------|------------------------------|
--0--0--0-0-0-0-0--0--0-0-0-0-|--0--0--0-0-0-0-0--0--0-0-0-0-|


                                                    
------------------------------|--------------------|
------------------------------|--------------------|
------------------------------|--------------------|
--0--0--0-0-0-0-0--0--0-0-0-0-|--3--------5--------|


                                                              
------------------------------|------------------------------|
------------------------------|------------------------------|
------------------------------|------------------------------|
--0--0--0-0-0-0-0--0--0-0-0-0-|--0--0--0-0-0-0-0--0--0-0-0-0-|


                                                              
------------------------------|------------------------------|
------------------------------|------------------------------|
------------------------------|--7------6------5------3------|
--0--0--0-0-0-0-0--0--0-0-0-0-|-----0-0----0-0----0-0----0-0-|


                                                              
------------------------------|------------------------------|
------------------------------|------------------------------|
------------------------------|------------------------------|
--0--0--0-0-0-0-0--0--0-0-0-0-|--0--0--0-0-0-0-0--0--0-0-0-0-|


                                                                               
------------------------------|--------------------|--------------------------|
------------------------------|--------------------|--------------------------|
------------------------------|--------------------|--------------------------|
--0--0--0-0-0-0-0--0--0-0-0-0-|--3--------5--------|--0--0--0--0--0--0--0--0--|


                                                      
--------------------------|--------------------------|
--------------------------|--------------------------|
--------------------------|--5--5--5--5--5--5--5--5--|
--0--0--0--0--0--0--0--0--|--------------------------|


                                                      
--------------------------|--------------------------|
--------------------------|--------------------------|
--5--5--5--5--5--5--5--5--|--------------------------|
--------------------------|--5--5--5--5--5--5--5--5--|


                                                          
--------------------------|------------------------------|
--------------------------|------------------------------|
--------------------------|------------------------------|
--5--5--5--5--5--5--5--5--|--0--0--0-0-0-0-0--0--0-0-0-0-|


                                                          
------------------------------|--------------------------|
------------------------------|--------------------------|
------------------------------|--------------------------|
--0--0--0-0-0-0-0--0--0-0-0-0-|--0--0--0--0--0--0--0--0--|


                                                      
--------------------------|--------------------------|
--------------------------|--------------------------|
--------------------------|--5--5--5--5--5--5--5--5--|
--0--0--0--0--0--0--0--0--|--------------------------|


                                                      
--------------------------|--------------------------|
--------------------------|--------------------------|
--5--5--5--5--5--5--5--5--|--------------------------|
--------------------------|--5--5--5--5--5--5--5--5--|


                                                          
--------------------------|------------------------------|
--------------------------|------------------------------|
--------------------------|------------------------------|
--5--5--5--5--5--5--5--5--|--0--0--0-0-0-0-0--0--0-0-0-0-|


                                                              
------------------------------|------------------------------|
------------------------------|------------------------------|
------------------------------|------------------------------|
--0--0--0-0-0-0-0--0--0-0-0-0-|--0--0--0-0-0-0-0--0--0-0-0-0-|


                                                              
------------------------------|------------------------------|
------------------------------|------------------------------|
------------------------------|------------------------------|
--0--0--0-0-0-0-0--0--0-0-0-0-|--0--0--0-0-0-0-0--0--0-0-0-0-|


                                                    
------------------------------|--------------------|
------------------------------|--------------------|
------------------------------|--------------------|
--0--0--0-0-0-0-0--0--0-0-0-0-|--3--------5--------|


                                                    
------------------------------|--------------------|
------------------------------|--------------------|
------------------------------|--------------------|
--0--0--0-0-0-0-0--0--0-0-0-0-|--3--------5--------|


                                                              
------------------------------|------------------------------|
------------------------------|------------------------------|
------------------------------|------------------------------|
--0--0--0-0-0-0-0--0--0-0-0-0-|--0--0--0-0-0-0-0--0--0-0-0-0-|


                                                              
------------------------------|------------------------------|
------------------------------|------------------------------|
------------------------------|------------------------------|
--0--0--0-0-0-0-0--0--0-0-0-0-|--0--0--0-0-0-0-0--0--0-0-0-0-|


                                                    
------------------------------|--------------------|
------------------------------|--------------------|
------------------------------|--------------------|
--0--0--0-0-0-0-0--0--0-0-0-0-|--3--------5--------|


                                                    
------------------------------|--------------------|
------------------------------|--------------------|
------------------------------|--------------------|
--0--0--0-0-0-0-0--0--0-0-0-0-|--3--------5--------|


                                                                             
------------------------------|----------------------|----------------------|
------------------------------|----------------------|----------------------|
------------------------------|----------------------|----------------8h-5--|
--0--0--0-0-0-0-0--0--0-0-0-0-|--0--0------0--0------|--0--0----------------|


                                                                     
----------------------|----------------------|----------------------|
----------------------|----------------------|----------------------|
----------------------|----------------8h-5--|----------------------|
--0--0------0--0------|--0--0----------------|--0--0------0--0------|


                                                                     
----------------------|----------------------|----------------------|
----------------------|----------------------|----------------------|
----------------8h-5--|----------------------|----------------8h-5--|
--0--0----------------|--0--0------0--0------|--0--0----------------|


                                                                      
----------------------------------|----------------------------------|
----------------------------------|----------------------------------|
----------------------------------|--7-7-7-7-6-6-6-6-5-5-5-5-4-4-4-4-|
--0-0-0-0-0-0-0-0-0-0-0-0-0-0-0-0-|----------------------------------|


                                                        
----------------------------------|--------------------|
----------------------------------|--------------------|
--3-3-3-3-3-3-3-3-3-3-3-3-3-3-3-3-|--------------------|
----------------------------------|--3--------5--------|


                                                                      
----------------------------------|----------------------------------|
----------------------------------|----------------------------------|
----------------------------------|--7-7-7-7-6-6-6-6-5-5-5-5-4-4-4-4-|
--0-0-0-0-0-0-0-0-0-0-0-0-0-0-0-0-|----------------------------------|


                                                        
----------------------------------|--------------------|
----------------------------------|--------------------|
--3-3-3-3-3-3-3-3-3-3-3-3-3-3-3-3-|--------------------|
----------------------------------|--3--------5--------|


                                                                           
------------------------|------------------------|------------------------|
------------------------|------------------------|------------------------|
------------------------|--3----3--3--3----3--3--|--0----0--0--0----0--0--|
--0----0--0--0----0--0--|------------------------|------------------------|


                                                                       
--------------------|------------------------|------------------------|
--------------------|------------------------|------------------------|
--1--------2--------|------------------------|--3----3--3--3----3--3--|
--------------------|--0----0--0--0----0--0--|------------------------|


                                                                      
------------------------|-------------------|------------------------|
------------------------|-------------------|------------------------|
------------------------|--2----------------|------------------------|
--3----3--3--3----3--3--|-------------------|--0----0--0--0----0--0--|


                                                                       
------------------------|------------------------|--------------------|
------------------------|------------------------|--------------------|
--3----3--3--3----3--3--|--0----0--0--0----0--0--|--1--------2--------|
------------------------|------------------------|--------------------|


                                                                           
------------------------|------------------------|------------------------|
------------------------|------------------------|------------------------|
------------------------|--3----3--3--3----3--3--|------------------------|
--0----0--0--0----0--0--|------------------------|--3----3--3--3----3--3--|


                                                                       
-------------------|-----------------------|--------------------------|
-------------------|-----------------------|--------------------0--1--|
--2----------------|-----------------------|--0--0--0--1--2--2--------|
-------------------|--0--0--0--0--0--------|--------------------------|


                                                                              
-----------------------|--------------------------|--------------------------|
-----------------------|--------------------0--1--|--------------------------|
-----------------------|--0--0--0--1--2--2--------|--------------------------|
--0--0--0--0--0--------|--------------------------|--0--0--0--0--0--0--0--0--|


                                                      
--------------------------|--------------------------|
--------------------------|--------------------------|
--2--2--2--2--2--2--2--2--|--5--5--5--5--5--5--5--5--|
--------------------------|--------------------------|


                                                      
--------------------------|--------------------------|
--------------------------|--------------------------|
--3--3--3--3--3--3--3--3--|--------------------------|
--------------------------|--0--0--0--0--0--0--0--0--|


                                                      
--------------------------|--------------------------|
--------------------------|--------------------------|
--2--2--2--2--2--2--2--2--|--5--5--5--5--5--5--5--5--|
--------------------------|--------------------------|


                                                          
--------------------------|------------------------------|
--------------------------|------------------------------|
--3--3--3--3--3--3--3--3--|------------------------------|
--------------------------|--0--0--0-0-0-0-0--0--0-0-0-0-|


                                                              
------------------------------|------------------------------|
------------------------------|------------------------------|
------------------------------|------------------------------|
--0--0--0-0-0-0-0--0--0-0-0-0-|--0--0--0-0-0-0-0--0--0-0-0-0-|


                                                              
------------------------------|------------------------------|
------------------------------|------------------------------|
--7------6------5------3------|------------------------------|
-----0-0----0-0----0-0----0-0-|--0--0--0-0-0-0-0--0--0-0-0-0-|


                                                              
------------------------------|------------------------------|
------------------------------|------------------------------|
------------------------------|------------------------------|
--0--0--0-0-0-0-0--0--0-0-0-0-|--0--0--0-0-0-0-0--0--0-0-0-0-|


                                                               
--------------------|-------------------|---------------------|
--------------------|-------------------|---------------------|
--------------------|--2----------------|----------------0----|
--3--------5--------|-------------------|--1--------2---------|


                                                              
-------------------|---------------------|-------------------|
-------------------|---------------------|-------------------|
--2----------------|----------------0----|--2----------------|
-------------------|--1--------2---------|-------------------|


                                                                
---------------------|-------------------|---------------------|
---------------------|-------------------|---------------------|
----------------0----|--2----------------|----------------0----|
--1--------2---------|-------------------|--1--------2---------|


                                                                             
-------------------|------------------|------------------|------------------|
-------------------|------------------|------------------|------------------|
-------------------|------------------|------------------|------------------|
--0----------------|------------------|------------------|------------------|


                                                              
----------------------------------|--------------------------|
----------------------------------|--------------------------|
--3-3-3-3-3-3-3-3-3-3-3-3-3-3-3-3-|--3--3-3-2--0--0-0-2------|
----------------------------------|--------------------------|


                                                              
----------------------------------|--------------------------|
----------------------------------|--------------------------|
--3-3-3-3-3-3-3-3-3-3-3-3-3-3-3-3-|--3--3-3-2--0--0-0-2------|
----------------------------------|--------------------------|


                                                                             
-------------------|------------------|------------------|------------------|
-------------------|------------------|------------------|------------------|
-------------------|------------------|------------------|------------------|
--0----------------|------------------|------------------|------------------|


                                                              
----------------------------------|--------------------------|
----------------------------------|--------------------------|
--3-3-3-3-3-3-3-3-3-3-3-3-3-3-3-3-|--3--3-3-2--0--0-0-2------|
----------------------------------|--------------------------|


                                                              
----------------------------------|--------------------------|
----------------------------------|--------------------------|
--3-3-3-3-3-3-3-3-3-3-3-3-3-3-3-3-|--3--3-3-2--0--0-0-2------|
----------------------------------|--------------------------|


                                                                           
------------------------|------------------------|------------------------|
------------------------|------------------------|------------------------|
------------------------|--3----3--3--3----3--3--|--0----0--0--0----0--0--|
--0----0--0--0----0--0--|------------------------|------------------------|


                                                                       
--------------------|------------------------|------------------------|
--------------------|------------------------|------------------------|
--1--------2--------|------------------------|--3----3--3--3----3--3--|
--------------------|--0----0--0--0----0--0--|------------------------|


                                                                      
------------------------|-------------------|------------------------|
------------------------|-------------------|------------------------|
------------------------|--2----------------|------------------------|
--3----3--3--3----3--3--|-------------------|--0----0--0--0----0--0--|


                                                                       
------------------------|------------------------|--------------------|
------------------------|------------------------|--------------------|
--3----3--3--3----3--3--|--0----0--0--0----0--0--|--1--------2--------|
------------------------|------------------------|--------------------|


                                                                           
------------------------|------------------------|------------------------|
------------------------|------------------------|------------------------|
------------------------|--3----3--3--3----3--3--|------------------------|
--0----0--0--0----0--0--|------------------------|--3----3--3--3----3--3--|


                                                                       
-------------------|-----------------------|--------------------------|
-------------------|-----------------------|--------------------0--1--|
--2----------------|-----------------------|--0--0--0--1--2--2--------|
-------------------|--0--0--0--0--0--------|--------------------------|


                                                                        
-----------------------|--------------------------|--------------------|
-----------------------|--------------------0--1--|--------------------|
-----------------------|--0--0--0--1--2--2--------|--------------------|
--0--0--0--0--0--------|--------------------------|--0--------3--------|


                                                                
---------------------|--------------------|--------------------|
---------------------|--------------------|--------------------|
--0--------1----2----|--------------------|--0--------2--------|
---------------------|--0--------3--------|--------------------|


                                                                
--------------------|---------------------|--------------------|
--------------------|---------------------|--------------------|
--------------------|--0--------1----2----|--------------------|
--0--------3--------|---------------------|--0--------3--------|


                                                                
--------------------|--------------------|---------------------|
--------------------|--------------------|---------------------|
--0--------2--------|--------------------|--0--------1----2----|
--------------------|--0--------3--------|---------------------|


                                                               
--------------------|--------------------|--------------------|
--------------------|--------------------|--------------------|
--------------------|-----------0--------|--------------------|
--0--------3--------|--4-----------------|--0--------3--------|


                                                                
---------------------|--------------------|--------------------|
---------------------|--------------------|--------------------|
--0--------1----2----|--------------------|-----------0--------|
---------------------|--0--------3--------|--4-----------------|


                                                               
--------------------|--------------------|--------------------|
--------------------|--------------------|--------------------|
-----------5--------|--2--------7--------|--5--------2--------|
--2-----------------|--------------------|--------------------|


                                                               
--------------------|--------------------|--------------------|
--------------------|--------------------|--------------------|
--7--------4--------|-----------5--------|--2--------7--------|
--------------------|--2-----------------|--------------------|


                                                              
--------------------|--------------------|-------------------|
--------------------|--------------------|-------------------|
--5--------2--------|--7--------4--------|-------------------|
--------------------|--------------------|--2----------------|


                                                             
-------------------|-------------------|--------------------|
-------------------|-------------------|--------------------|
--5----------------|--2----------------|--3--------4--------|
-------------------|-------------------|--------------------|


                                                            
-------------------|-------------------|-------------------|
-------------------|-------------------|-------------------|
-------------------|--5----------------|--2----------------|
--2----------------|-------------------|-------------------|


                                                             
--------------------|--------------------|------------------|
--------------------|--------------------|------------------|
--3--------4--------|-----------------2--|------------------|
--------------------|--4-----------------|------------------|


                                                               
--------------------|--------------------|--------------------|
--------------------|--------------------|--------------------|
--4--------------5--|--------4------2----|-----------------2--|
--------------------|--------------------|--4-----------------|


                                                             
------------------|--------------------|--------------------|
------------------|--------------------|--------------------|
------------------|--4--------------5--|--------4------2----|
------------------|--------------------|--------------------|


                                                                      
----------------------------------|----------------------------------|
----------------------------------|----------------------------------|
----------------------------------|--7-7-7-7-6-6-6-6-5-5-5-5-4-4-4-4-|
--0-0-0-0-0-0-0-0-0-0-0-0-0-0-0-0-|----------------------------------|


                                                        
----------------------------------|--------------------|
----------------------------------|--------------------|
--3-3-3-3-3-3-3-3-3-3-3-3-3-3-3-3-|--------------------|
----------------------------------|--3--------5--------|


                                                                      
----------------------------------|----------------------------------|
----------------------------------|----------------------------------|
----------------------------------|--7-7-7-7-6-6-6-6-5-5-5-5-4-4-4-4-|
--0-0-0-0-0-0-0-0-0-0-0-0-0-0-0-0-|----------------------------------|


                                                                      
----------------------------------|----------------------------------|
----------------------------------|----------------------------------|
--3-3-3-3-3-3-3-3-3-3-3-3-3-3-3-3-|--5-5-5-5-5-5-5-5-5-5-5-5-5-5-5-5-|
----------------------------------|----------------------------------|


                                                                      
----------------------------------|----------------------------------|
----------------------------------|----------------------------------|
----------------------------------|--2-2-2-2-2-2-2-2-2-2-2-2-2-2-2-2-|
--0-0-0-0-0-0-0-0-0-0-0-0-0-0-0-0-|----------------------------------|


                                                                      
----------------------------------|----------------------------------|
----------------------------------|----------------------------------|
--3-3-3-3-3-3-3-3-3-3-3-3-3-3-3-3-|--5-5-5-5-5-5-5-5-5-5-5-5-5-5-5-5-|
----------------------------------|----------------------------------|


                                                                      
----------------------------------|----------------------------------|
----------------------------------|----------------------------------|
----------------------------------|--2-2-2-2-2-2-2-2-2-2-2-2-2-2-2-2-|
--0-0-0-0-0-0-0-0-0-0-0-0-0-0-0-0-|----------------------------------|


                                                                      
----------------------------------|----------------------------------|
----------------------------------|----------------------------------|
--3-3-3-3-3-3-3-3-3-3-3-3-3-3-3-3-|--5-5-5-5-5-5-5-5-5-5-5-5-5-5-5-5-|
----------------------------------|----------------------------------|


                                                                      
----------------------------------|----------------------------------|
----------------------------------|----------------------------------|
--3-3-3-3-3-3-3-3-3-3-3-3-3-3-3-3-|--5-5-5-5-5-5-5-5-5-5-5-5-5-5-5-5-|
----------------------------------|----------------------------------|


                                                              
------------------------------|------------------------------|
------------------------------|------------------------------|
------------------------------|--7------6------5------3------|
--0--0--0-0-0-0-0--0--0-0-0-0-|-----0-0----0-0----0-0----0-0-|


                                                                      
----------------------------------|----------------------------------|
----------------------------------|----------------------------------|
--3-3-3-3-3-3-3-3-3-3-3-3-3-3-3-3-|--2-2-2-2-2-2-2-2-2-2-2-2-2-2-2-2-|
----------------------------------|----------------------------------|


                                                              
------------------------------|------------------------------|
------------------------------|------------------------------|
------------------------------|--7------6------5------3------|
--0--0--0-0-0-0-0--0--0-0-0-0-|-----0-0----0-0----0-0----0-0-|


                                                        
----------------------------------|--------------------|
----------------------------------|--------------------|
--3-3-3-3-3-3-3-3-3-3-3-3-3-3-3-3-|--5--------2--------|
----------------------------------|--------------------|


                                                                           
------------------------|------------------------|------------------------|
------------------------|------------------------|------------------------|
------------------------|--3----3--3--3----3--3--|--0----0--0--0----0--0--|
--0----0--0--0----0--0--|------------------------|------------------------|


                                                                       
--------------------|------------------------|------------------------|
--------------------|------------------------|------------------------|
--1--------2--------|------------------------|--3----3--3--3----3--3--|
--------------------|--0----0--0--0----0--0--|------------------------|


                                                                      
------------------------|-------------------|------------------------|
------------------------|-------------------|------------------------|
------------------------|--2----------------|------------------------|
--3----3--3--3----3--3--|-------------------|--0----0--0--0----0--0--|


                                                                       
------------------------|------------------------|--------------------|
------------------------|------------------------|--------------------|
--3----3--3--3----3--3--|--0----0--0--0----0--0--|--1--------2--------|
------------------------|------------------------|--------------------|


                                                                           
------------------------|------------------------|------------------------|
------------------------|------------------------|------------------------|
------------------------|--3----3--3--3----3--3--|------------------------|
--0----0--0--0----0--0--|------------------------|--3----3--3--3----3--3--|


                                                                       
-------------------|-----------------------|--------------------------|
-------------------|-----------------------|--------------------0--1--|
--2----------------|-----------------------|--0--0--0--1--2--2--------|
-------------------|--0--0--0--0--0--------|--------------------------|


                                                                              
-----------------------|--------------------------|--------------------------|
-----------------------|--------------------0--1--|--------------------------|
-----------------------|--0--0--0--1--2--2--------|--------------------------|
--0--0--0--0--0--------|--------------------------|--0----0--0--0-0-0--0--0--|


                                                                             
------------------------|--------------------------|------------------------|
------------------------|--------------------------|------------------------|
---------5----4---------|--------------------------|---------5----4---------|
--0-0-0------------5----|--3----3--3--3-3-3--3--3--|--3-3-3------------5----|


                                                                               
--------------------------|------------------------|--------------------------|
--------------------------|------------------------|--------------------------|
--------------------------|---------5----4---------|--------------------------|
--0----0--0--0-0-0--0--0--|--0-0-0------------5----|--3----3--3--3-3-3--3--3--|


                                                                               
------------------------|------------------------------|---------------------||
------------------------|------------------------------|---------------------||
---------5----4---------|------------------------------|---------------------||
--3-3-3------------5----|--0--0--0-0-0-0-0--0--0-0-0-0-|--12/---0------------||
comments
We did not receive enough feedback on this tab! Please rate:
print report bad tab
1 2 3 4 5
I want to post or [tab]
guest
You may want to rate the tab now too:
select rating
Please do not post tabs as comments. Select "correction" instead!