Oops, an error
Loading. Please wait.

By The Gates Of Moria Bass Tab

ver1
ver1

Whole song

Interactive

More versions @911Tabs.com
241 views 3 this week
no commentswrite comment
1 2 3 4 5
please rate
Autoscroll
+/-
esc
set tempo
stop
Contributor
Hey! There's an official Ultimate Guitar app which is ideal
for learning songs when you're away from computer. Get the app
WARNING: You are trying to view
                                    content from Ultimate-Guitar.com
                                    in an unauthorized application,
                                    which is prohibited.

                                    Please use an official Ultimate
                                    Guitar Tabs application for iPhone,
                                    iPad or Android to access legitimate
                                    chords, guitar, bass, and drum tabs
                                    from Ultimate-Guitar.com database.

                                    Type "ultimate guitar tabs" in Apple
                                    App Store's or Android Market's
                                    search to find the application.
Standard Tuning

G||---------------------|---------------------|------------|
D||---------------------|---------------------|------------|
A||--2------3------2----|----3------2----3----|--2----3----|
E||---------------------|---------------------|------------|


                                                      
--------------------------|--------------------------|
--------------------------|--------------------------|
--2--3--2--3--2--3--2--3--|--2--3--2--3--2--3--2--3--|
--------------------------|--------------------------|


                                                                
--------------------------------|------------------------------|
--------------------------------|------------------------------|
--7---7----------7---7----------|--7---7----------7---7--------|
--------0--0--0--------0--0--0--|--------0--0--0--------0------|


                                                                      
----------------------------------|----------------------------------|
----------------------------------|----------------------------------|
--3-3-3-3-3-3-3-3-3-3-3-3-3-3-3-3-|--3-3-3-3-3-3-3-3-3-3-3-3-3-3-3-3-|
----------------------------------|----------------------------------|


                                                                
--------------------------------|------------------------------|
--------------------------------|------------------------------|
--7---7----------7---7----------|--7---7----------7---7--------|
--------0--0--0--------0--0--0--|--------0--0--0--------0------|


                                                                      
----------------------------------|----------------------------------|
----------------------------------|----------------------------------|
--3-3-3-3-3-3-3-3-3-3-3-3-3-3-3-3-|--3-3-3-3-3-3-3-3-3-3-3-3-3-3-3-3-|
----------------------------------|----------------------------------|


                                                                
--------------------------------|------------------------------|
--------------------------------|------------------------------|
--7---7----------7---7----------|--7---7----------7---7--------|
--------0--0--0--------0--0--0--|--------0--0--0--------0------|


                                                                  
--------------------------------|--------------------------------|
--------------------------------|--------------------------------|
--3---3-3--3--3--3---3-3--3--3--|--3---3-3--3--3--3---3-3--3--3--|
--------------------------------|--------------------------------|


                                                                  
--------------------------------|--------------------------------|
--------------------------------|--------------------------------|
--0---0-0--0--0--0---0-0--0--0--|--0---0-0--0--0--0---0-0--0--0--|
--------------------------------|--------------------------------|


                                                                  
--------------------------------|--------------------------------|
--------------------------------|--------------------------------|
--------------------------------|--------------------------------|
--3---3-3--3--3--3---3-3--3--3--|--1---1-1--1--1--1---1-1--1--1--|


                                                           
-------------------|------------------|-------------------|
-------------------|------------------|-------------------|
--7----------------|------------------|--7----------------|
-------------------|------------------|-------------------|


                                                          
----------------------|----------------------------------|
----------------------|----------------------------------|
--5--5----5--5--------|--2-2-2-2-2-2-2-2-2-2-2-2-2-2-2-2-|
----------------------|----------------------------------|


                                                                              
----------------------------------|-------------------|----------------------|
----------------------------------|-------------------|----------------------|
--2-2-2-2-2-2-2-2-2-2-2-2-2-2-2-2-|--7----------------|--5----5--5--5--------|
----------------------------------|-------------------|----------------------|


                                                                      
----------------------------------|----------------------------------|
----------------------------------|----------------------------------|
--3-3-3-3-3-3-3-3-3-3-3-3-3-3-3-3-|--3-3-3-3-3-3-3-3-3-3-3-3-3-3-3-3-|
----------------------------------|----------------------------------|


                                                            
-----------------------------|-----------------------------|
-----------------------------|-----------------------------|
--7--7--7--7--7--7--7--------|--8--8--8--8--8--8--8--------|
-----------------------------|-----------------------------|


                                                                     
--------------------------------------|-----------------------------|
--------------------------------------|-----------------------------|
--------------------------------------|-----------2-----------------|
--5--5--5--7--7--7--3--3--3--5--5--5--|--2--3--5-----5--3--2--------|


                                                                        
|-----------------------------------|----------------------------------|
|*----------------------------------|----------------------------------|
|*--3-3-3-3-3-3-3-3-3-3-3-3-3-3-3-3-|--2-2-2-2-2-2-2-2-2-2-2-2-2-2-2-2-|
|-----------------------------------|----------------------------------|


                                                                        
----------------------------------|-----------------------------------||
----------------------------------|----------------------------------*||
--0-0-0-0-0-0-0-0-0-0-0-0-0-0-0-0-|--0-0-0-0-0-0-0-0-0-0-0-0-0-0-0-0-*||
----------------------------------|-----------------------------------||


                                                                       
-----------------------|----------------------|-----------------------|
-----------------------|----------------------|-----------------------|
-----------------------|-----------------3----|-----------------------|
--2----3----5----2--3--|--2----3----5---------|--2----3----5----2--3--|


                                                                      
----------------------|-----------------------|----------------------|
----------------------|-----------------------|----------------------|
-----------------5----|-----------------------|-----------------3----|
--2----3----5---------|--2----3----5----2--3--|--2----3----5---------|


                                                                  
-----------------------|----------------------|------------------|
-----------------------|----------------------|------------------|
-----------------------|-----------------2----|------------------|
--2----3----5----2--3--|--2----3----5---------|------------------|


                                                                    
-----------------------|-------------------|-----------------------|
-----------------------|-------------------|-----------------------|
-----------------------|-------------------|--2--2--2------2----2--|
--0--0--0------0----0--|--0----------------|-----------------------|


                                                                            
------------------------|-----------------------|--------------------------|
------------------------|-----------------------|--------------------------|
--0--0------------------|-----------------------|--------------------------|
--------3--3--2----2----|--3--3--3------3----3--|--3--3--3--3--3--3--3--3--|


                                                                              
-----------------------|--------------------------|--------------------------|
-----------------------|--------------------------|--------------------------|
--3--3--3------3----3--|--3--3--3--3--3--3--3--3--|--------------------------|
-----------------------|--------------------------|--0--0--0--0--0--0--0--0--|


                                                      
--------------------------|--------------------------|
--------------------------|--------------------------|
--------------------------|--2--2--2--2--2--2--2--2--|
--0--0--0--0--0--0--0--0--|--------------------------|


                                                      
--------------------------|--------------------------|
--------------------------|--------------------------|
--2--2--2--2--2--2--2--2--|--------------------------|
--------------------------|--3--3--3--3--3--3--3--3--|


                                                      
--------------------------|--------------------------|
--------------------------|--------------------------|
--------------------------|--3--3--3--3--3--3--3--3--|
--3--3--3--3--3--3--3--3--|--------------------------|


                                                                  
--------------------------|-------------------|------------------|
--------------------------|-------------------|------------------|
--3--3--3--3--3--3--3--3--|--5----------------|------------------|
--------------------------|-------------------|------------------|


                                                            
-----------------------------|-----------------------------|
--5--5-5-5--4--2-2-2--2--2-2-|--7--7-7-7--5--4-4-4---4-----|
-----------------------------|-------------------------5-5-|
-----------------------------|-----------------------------|


                                                               
---------------------------|----------------------------------|
-----5------------4--5-----|----------------------------------|
--7-----5--5-5-7--------3--|--2-2-2-2-2-2-2-2-2-2-2-2-2-2-2-2-|
---------------------------|----------------------------------|


                                                                     
---------------------------------|----------------------------------|
---------------------------------|----------------------------------|
--2-2-2-2-2-2-2-2-2-2-2-2-2-2-3--|--2-2-2-2-2-2-2-2-2-2-2-2-2-2-2-2-|
---------------------------------|----------------------------------|


                                                         
---------------------------------|----------------------|
---------------------------------|----------------------|
--2-2-2-2-2-2-2-2-2-2-2-2-2-2-3--|--2----3----5----2----|
---------------------------------|----------------------|


                                                                      
----------------------------------|----------------------------------|
----------------------------------|----------------------------------|
--7-7-7-7-7-7-7-7-7-7-7-7-7-7-7-7-|--5-5-5-5-5-5-5-5-5-5-5-5-5-5-5-5-|
----------------------------------|----------------------------------|


                                                        
----------------------------------|--------------------|
----------------------------------|--------------------|
--7-7-7-7-7-7-7-7-7-7-7-7-7-7-7-7-|--3--------5--------|
----------------------------------|--------------------|


                                                                      
----------------------------------|----------------------------------|
----------------------------------|----------------------------------|
--7-7-7-7-7-7-7-7-7-7-7-7-7-7-7-7-|--5-5-5-5-5-5-5-5-5-5-5-5-5-5-5-5-|
----------------------------------|----------------------------------|


                                                        
----------------------------------|--------------------|
----------------------------------|--------------------|
--7-7-7-7-7-7-7-7-7-7-7-7-7-7-7-7-|--3--------5--------|
----------------------------------|--------------------|


                                                                      
----------------------------------|----------------------------------|
----------------------------------|----------------------------------|
--7-7-7-7-7-7-7-7-7-7-7-7-7-7-7-7-|--5-5-5-5-5-5-5-5-5-5-5-5-5-5-5-5-|
----------------------------------|----------------------------------|


                                                                      
----------------------------------|----------------------------------|
----------------------------------|----------------------------------|
--7-7-7-7-7-7-7-7-7-7-7-7-7-7-7-7-|--3-3-3-3-3-3-3-3-5-5-5-5-5-5-5-5-|
----------------------------------|----------------------------------|


                                                                      
----------------------------------|----------------------------------|
----------------------------------|----------------------------------|
--7-7-7-7-7-7-7-7-7-7-7-7-7-7-7-7-|--5-5-5-5-5-5-5-5-5-5-5-5-5-5-5-5-|
----------------------------------|----------------------------------|


                                                                      
----------------------------------|----------------------------------|
----------------------------------|----------------------------------|
--7-7-7-7-7-7-7-7-7-7-7-7-7-7-7-7-|--3-3-3-3-3-3-3-3-5-5-5-5-5-5-5-5-|
----------------------------------|----------------------------------|


                                                                      
----------------------------------|----------------------------------|
----------------------------------|----------------------------------|
--7-7-7-7-7-7-7-7-7-7-7-7-7-7-7-7-|--5-5-5-5-5-5-5-5-5-5-5-5-5-5-5-5-|
----------------------------------|----------------------------------|


                                                                      
----------------------------------|----------------------------------|
----------------------------------|----------------------------------|
--7-7-7-7-7-7-7-7-7-7-7-7-7-7-7-7-|--3-3-3-3-3-3-3-3-5-5-5-5-5-5-5-5-|
----------------------------------|----------------------------------|


                                                                      
----------------------------------|----------------------------------|
----------------------------------|----------------------------------|
--7-7-7-7-7-7-7-7-7-7-7-7-7-7-7-7-|--5-5-5-5-5-5-5-5-5-5-5-5-5-5-5-5-|
----------------------------------|----------------------------------|


                                                                      
----------------------------------|----------------------------------|
----------------------------------|----------------------------------|
--7-7-7-7-7-7-7-7-7-7-7-7-7-7-7-7-|--3-3-3-3-3-3-3-3-5-5-5-5-5-5-5-5-|
----------------------------------|----------------------------------|


                                                                      
----------------------------------|----------------------------------|
----------------------------------|----------------------------------|
--7-7-7-7-7-7-7-7-7-7-7-7-7-7-7-7-|--5-5-5-5-5-5-5-5-5-5-5-5-5-5-5-5-|
----------------------------------|----------------------------------|


                                                                      
----------------------------------|----------------------------------|
----------------------------------|----------------------------------|
--7-7-7-7-7-7-7-7-7-7-7-7-7-7-7-7-|--3-3-3-3-3-3-3-3-5-5-5-5-5-5-5-5-|
----------------------------------|----------------------------------|


                                                                      
----------------------------------|----------------------------------|
----------------------------------|----------------------------------|
--7-7-7-7-7-7-7-7-7-7-7-7-7-7-7-7-|--5-5-5-5-5-5-5-5-5-5-5-5-5-5-5-5-|
----------------------------------|----------------------------------|


                                                                            
----------------------------------|--------------------|-------------------|
----------------------------------|--------------------|-------------------|
--7-7-7-7-7-7-7-7-7-7-7-7-7-7-7-7-|--3--------5--------|--7----------------|
----------------------------------|--------------------|-------------------|


                                                                
-------------------|---------------------|---------------------|
-------------------|---------------------|---------------------|
--5----------------|--3--------3----3----|--2--------2----2----|
-------------------|---------------------|---------------------|


                                                                     
--------------------------|--------------------|-------------------||
--------------------------|--------------------|-------------------||
--0--0--0--0--0--0--0--0--|--------------------|--7----------------||
--------------------------|--3--------2--------|-------------------||
comments
We did not receive enough feedback on this tab! Please rate:
print report bad tab
1 2 3 4 5
I want to post or [tab]
guest
You may want to rate the tab now too:
select rating
Please do not post tabs as comments. Select "correction" instead!