Oops, an error
Loading. Please wait.

Fiddler On The Green Bass Tab

ver1
ver1

Whole song

Interactive

More versions @911Tabs.com
474 views 3 this week
no commentswrite comment
1 2 3 4 5
please rate
Autoscroll
+/-
esc
set tempo
stop
Contributor
WARNING: You are trying to view
                                    content from Ultimate-Guitar.com
                                    in an unauthorized application,
                                    which is prohibited.

                                    Please use an official Ultimate
                                    Guitar Tabs application for iPhone,
                                    iPad or Android to access legitimate
                                    chords, guitar, bass, and drum tabs
                                    from Ultimate-Guitar.com database.

                                    Type "ultimate guitar tabs" in Apple
                                    App Store's or Android Market's
                                    search to find the application.
Tune Down

F#||----------------|---------------|---------------|---------------||
C#||*---------------|---------------|---------------|--------------*||
G#||*--0------------|--0------------|--0------------|--------------*||
D#||----------------|---------------|---------------|---------------||


                                                                   
----------------|---------------|---------------|----------------||
*---------------|---------------|---------------|---------------*||
*--0------------|--0------------|--0------------|--3------------*||
----------------|---------------|---------------|----------------||


                                                                      
----------------|----------------||-----------------|----------------|
----------------|----------------||*----------------|----------------|
--0------0------|--0------0------||*--3------3------|--2------2------|
----------------|----------------||-----------------|----------------|


                                  3x                                  
----------------|-----------------||----------------|----------------|
----------------|----------------*||----------------|----------------|
--0------0------|--0------0------*||--3------3------|--3------3------|
----------------|-----------------||----------------|----------------|


                                                                 
----------------|---------------|---------------|---------------|
----------------|---------------|---------------|---------------|
--2------2------|--0------------|--0------------|--0------------|
----------------|---------------|---------------|---------------|


                                                                                
---------------|---------------|---------------|---------------|---------------|
---------------|---------------|---------------|---------------|---------------|
--0------------|--3------------|--0------------|--0------------|--0------------|
---------------|---------------|---------------|---------------|---------------|


                                                                                
---------------|---------------|---------------|---------------|---------------|
---------------|---------------|---------------|---------------|---------------|
--3------------|--0------------|--0------------|--0------------|--3------------|
---------------|---------------|---------------|---------------|---------------|


                                                                
---------------|---------------|---------------|---------------|
---------------|---------------|---------------|---------------|
--0------------|--0------------|--0------------|--3------------|
---------------|---------------|---------------|---------------|


                                                                    
----------------|----------------|----------------|----------------|
----------------|----------------|----------------|----------------|
--0------0------|--0------0------|--3------3------|--2------2------|
----------------|----------------|----------------|----------------|


                                                                    
----------------|----------------|----------------|----------------|
----------------|----------------|----------------|----------------|
--0------0------|--0------0------|--3------3------|--2------2------|
----------------|----------------|----------------|----------------|


                                                                    
----------------|----------------|----------------|----------------|
----------------|----------------|----------------|----------------|
--0------0------|--0------0------|--3------3------|--2------2------|
----------------|----------------|----------------|----------------|


                                                                    
----------------|----------------|----------------|----------------|
----------------|----------------|----------------|----------------|
--0------0------|--0------0------|--3------3------|--2------2------|
----------------|----------------|----------------|----------------|


                                                                   
----------------|----------------|----------------|---------------|
----------------|----------------|----------------|---------------|
--3------3------|--3------3------|--2------2------|--0------------|
----------------|----------------|----------------|---------------|


                                                                                
---------------|---------------|---------------|---------------|---------------|
---------------|---------------|---------------|---------------|---------------|
--0------------|--0------------|--0------------|--3------------|--0------------|
---------------|---------------|---------------|---------------|---------------|


                                                                                
---------------|---------------|---------------|---------------|---------------|
---------------|---------------|---------------|---------------|---------------|
--0------------|--0------------|--3------------|--0------------|--0------------|
---------------|---------------|---------------|---------------|---------------|


                                                                                
---------------|---------------|---------------|---------------|---------------|
---------------|---------------|---------------|---------------|---------------|
--0------------|--3------------|--0------------|--0------------|--0------------|
---------------|---------------|---------------|---------------|---------------|


                                                                     
---------------|----------------|----------------||-----------------|
---------------|----------------|----------------||*----------------|
--3------------|--0------0------|--0------0------||*--3------3------|
---------------|----------------|----------------||-----------------|


                                                   3x                 
----------------|----------------|-----------------||----------------|
----------------|----------------|----------------*||----------------|
--2------2------|--0------0------|--0------0------*||--3------3------|
----------------|----------------|-----------------||----------------|


                                                                  
----------------|----------------|---------------|---------------|
----------------|----------------|---------------|---------------|
--3------3------|--2------2------|--0------------|--0------------|
----------------|----------------|---------------|---------------|


                                                                                
---------------|---------------|---------------|---------------|---------------|
---------------|---------------|---------------|---------------|---------------|
--------0------|--3------------|---------------|--0------------|--------0------|
---------------|---------------|--3------------|---------------|---------------|


                                                                                
---------------|---------------|---------------|---------------|---------------|
---------------|---------------|---------------|---------------|---------------|
--3------------|---------------|--0------------|--------0------|--3------------|
---------------|--3------------|---------------|---------------|---------------|


                                                                                
---------------|---------------|---------------|---------------|---------------|
---------------|---------------|---------------|---------------|---------------|
---------------|--0------------|--------0------|--3------------|---------------|
--3------------|---------------|---------------|---------------|--3------------|


                                                                              
---------------|--------------|---------------|--------------|---------------|
---------------|--------------|---------------|--------------|---------------|
---------------|--------------|---------------|--------------|--0------------|
--1------------|--------------|--3------------|--------------|---------------|


                                                                 
-----------------|---------------|--------------|---------------|
-----------------|---------------|--------------|---------------|
--------3--3--3--|---------------|--------------|--0------------|
-----------------|--3------------|--------------|---------------|


                                                                 
-----------------|---------------|--------------|---------------|
-----------------|---------------|--------------|---------------|
--------3--3--3--|---------------|--------------|--0------------|
-----------------|--3------------|--------------|---------------|


                                                                 
-----------------|---------------|--------------|---------------|
-----------------|---------------|--------------|---------------|
--------3--3--3--|---------------|--------------|--0------------|
-----------------|--3------------|--------------|---------------|


                                                                                
-----------------|---------------|--------------|---------------|--------------|
-----------------|---------------|--------------|---------------|--------------|
--------3--3--3--|---------------|--------------|---------------|--------------|
-----------------|--3------------|--------------|--1------------|--------------|


                                                                   
---------------|--------------||----------------|-----------------|
---------------|--------------||*---------------|-----------------|
---------------|--------------||*--0------------|--------3--3--3--|
--3------------|--------------||----------------|-----------------|


                               2x                                  
---------------|---------------||---------------|-----------------|
---------------|--------------*||---------------|-----------------|
---------------|--------------*||--0------------|--------3--3--3--|
--3------------|---------------||---------------|-----------------|


                                                                 
---------------|--------------|---------------|-----------------|
---------------|--------------|---------------|-----------------|
---------------|--------------|--0------------|--------3--3--3--|
--3------------|--------------|---------------|-----------------|


                                                                 
---------------|--------------|---------------|-----------------|
---------------|--------------|---------------|-----------------|
---------------|--------------|--0------------|--------3--3--3--|
--3------------|--------------|---------------|-----------------|


                                
---------------|--------------||
---------------|--------------||
---------------|--------------||
--3------------|--------------||
comments
We did not receive enough feedback on this tab! Please rate:
print report bad tab
1 2 3 4 5
I want to post or [tab]
guest
You may want to rate the tab now too:
select rating
Please do not post tabs as comments. Select "correction" instead!