Oops, an error
Loading. Please wait.

I Wonder Tab

ver1
ver1

Intro

Whole song

More versions @911Tabs.com
22,044 views 54 this week
4 commentsread comments
1 2 3 4 5
excellent!
x 14
Autoscroll
+/-
esc
set tempo
stop
Hey! There's an official Ultimate Guitar app which is ideal
for learning songs when you're away from computer. Get the app
WARNING: You are trying to view
                                    content from Ultimate-Guitar.com
                                    in an unauthorized application,
                                    which is prohibited.

                                    Please use an official Ultimate
                                    Guitar Tabs application for iPhone,
                                    iPad or Android to access legitimate
                                    chords, guitar, bass, and drum tabs
                                    from Ultimate-Guitar.com database.

                                    Type "ultimate guitar tabs" in Apple
                                    App Store's or Android Market's
                                    search to find the application.
Blind Melon 
"I wonder"
From the album: Blind Melon
tabbed by:Orjan Olsen (orjano59@hotmail.com)

I Know this may seem hard but just practice on it and it will sound great. It sounds best with a Fender telecaster or 
a stratocaster, on the clean verse part I take the toogle switch all the way up. It gives you that nice sound. There
very little good tabs of blind melon on the web. So I hope you guys can post some to!! I get my soup tab book soon, 
so I will tab some songs from that book to. Peace!! 


Standart tuning

Slowly= tempo 54

Guitar 1 (akustic)
  W/fingers  Let ring throughout { = down sweep } = up sweep 
    G                                                     C  
|---{------------------|-{-------3-{---------|---------------------|
|---{0--------1p0--0---|-{3--------{0--------|-1p0---0---------1---|
|---{0------------2--0-|-{0--0-----{0--------|-----2---0-----0---0-|
|---{------------------|-{---------{---------|---------------------|
|---{------------------|-{---------{---------|------------3--------|
|---{3-----------------|-{3--------{3--------|---------------------|


                            G                      Vocal enter
|---------------------5p3-|---------------------|-{-----------------|
|------1--------1---3-----|---3-----------------|-{3-----3--1-------|
|----0--------0-----------|-----------0---------|-{0-----0--0--0--0-|
|---------0h2-----0-------|---------0-----------|-{-----------------|
|-3-----------------------|-----2h3-------------|-{-----------------|
|-------------------------|-3-----------3-------|-{3--3--3--3--3--3-|



|------------------|-{--------------------|-------------------------|
|-0----------(0)---|-{3--------------1--1-|-0h1p0----------(0)------|
|-0--0-----2-----2-|-{0--0--0--0--0-------|-----0--0-----2----------|
|-------0-----0----|-{--------------------|-----------0-----0-------|
|----------3-----3-|-{--------------------|--------------3-----3----|
|-3----------------|-{3--3--3--3--3-----3-|-----3-------------------|



|-{-----------------|-------------------|-{------------------|
|-{3-----3--1-------|-0----------(0)----|-{3-----3--1--------|
|-{0-----0--0--0--0-|-0--0-----2----(2)-|-{0-----0--0--0--0--|
|-{-----------------|-------0-----0-----|-{------------------|
|-{-----------------|----------3-----3--|-{------------------|
|-{3--3--3--3--3--3-|-3-----------------|-{3--3--3--3--3--3--|


                       A                  C        G/B                        
|--------------------|------------------|-0-----0----------5--|
|-0-----------(0)----|--------3p2-------|-----------3---------|
|-0--0------2----(2)-|------2-----2-----|----0----------0-----|
|-------0------0-----|---(2)---------2--|---------------------|
|-----------3-----3--|-0----------------|-3---------2---------|
|-3------------------|------------------|---------------------|


  A                  C         G/B          G                                  
|------------------|-0-----0-----------5--|--------------------|
|--------3p2----2--|------------3---------|-0-----0--1-----1---|
|------2-----2-----|----0-----------0-----|-0--0--------0------|
|---(2)------------|----------------------|--------------------|
|-0----------------|-3----------2---------|--------------------|
|------------------|----------------------|-3-----3--3-----3---|



|--------------------|-{----------------0-|--------------------|
|-0----------(0)-----|-{3-----3--1--------|-0------------0-----|
|-0--0-----2----(2)--|-{0--0--0-----0-----|----0------2-----2--|
|-------0-----0------|-{------------------|--------0-----------|
|----------3-----3---|-{------------------|-----------3--------|
|-3------------------|-{3-----3--3--------|-3------------------|


  G/B       Bb         A                    G/B      Bb        G                        
|--------------------|--------------------|------------------|---------}3-|
|--------------------|--------3p2------5~-|------------------|---------}0-|
|--------0--------3--|------2-----2-------|-------0--------3-|-------0-}0-|
|-----0--------0-----|---(2)--------------|----0--------0----|----0----}0-|
|--2--------1--------|-0------------------|-2--------1-------|---------}x-|
|--------------------|--------------------|------------------|-3-------}3-|

Faster: Tempo 82
Guitar 3: sligth dist
                  D
|---------------|--------------------------------------------|
|---------------|-------------3------------------------------|
|---------------|-------------0------------------------------|
|---------------|-------------0------------------------------|
|---------------|-------------x------------------------------|
|---------------|-------------3------------------------------|
|guitar 2: dist                                              
|                                                        
|                                                             
|---------------|--------------------------------------------|
|---------------|-3------------------------------------------|
|---------------|-2-----0h2p0----0---------------------------|
|---------------|-0-----------4---------4h5p4p0-2--4--2------|
|----------0--3-|----------------------------------------3---|
|---------------|--------------------------------------------|


  D       C(addD)            D           G
|-2------------------------|-2-----------3-----------------3----------|
|-3---------3--------------|-3-----------3-----------------3----------|
|-2---------0--------------|-2-----0-----0------0--0-------0----------|
|-0---------2--------------|-0-----------0------0--0-------0----------|
|-----------3---------0--3-|-------------x-----------------x----------|
|--------------------------|-------------3-----------------3----------|
|                                                            
|                                                             
|                                                             
|--------------------------|------------------------------------------|
|-----3---------3----------|-3----------------------------------------|
|-------2---------0--------|-2-----0h2p0----0-------------------------|
|-0-------0-2-------2------|-0-----------4---------4h5p4p0-2--4--2----|
|-----------3---------0--3-|----------------------------------------3-|
|--------------------------|------------------------------------------|


  D        C(addD)               D              (G)                       
|-0h2--2-0-0-------------------|----------------------------------|
|-3----3-3-3--3----3-1-0-------|-3\-------------------------------|
|-2----2-2-2--0----0-0-0-------|-2\-------------------------------|
|-0----0-0----2----2-2-2-------|-0----5h7p5-4--5~~~-4h5-2h4-2-----|
|-------------3----------0--3--|------------------------------3---|
|------------------------------|----------------------------------|
|                                                         
|                                                           
|                                                                   
|------------------------------|----------------------------------|
|------3-----------3-----------|-3\-------------------------------|
|--------2-----------0---------|-2\---5h7p5-4--5~~~-4h5-2h4-2-----|
|-0--------0--2--------2-------|-0--------------------------------|
|-------------3----------0--3--|------------------------------3---|
|------------------------------|----------------------------------|
                                                    
                                                       
              C                 D               G               
|----2---------------0--------|-----------------------------------|
|------3---------------1------|-3\--------------------------------|
|--------2h4------------------|-2\--------------------------------|
|-0----------------2----------|-0-----5h7p5-4--5~~~-4h5-2h4-2-----|
|-------------3----------0--3-|-------------------------------3---|
|-----------------------------|-----------------------------------|
|                                                            
|                                                           
|                                                            
|-----------------------------|-----------------------------------|
|------3-----------3----------|-3\--------------------------------|
|--------2-----------0--------|-2\----5h7p5-4--5~~~-4h5-2h4-2-----|
|-0--------0--2--------2------|-0---------------------------------|
|-------------3----------0--3-|-------------------------------3---|
|-----------------------------|-----------------------------------|


  D         C                     (F)            G                                   
|---2--------------------0-------|--------------------------------|
|-----3----------------------0---|--------------------------------|
|-------2h4--------0-------------|--------------------------------|
|-0--------------2---------------|-3--3-3--3p2--------------------|
|------------3-------------------|-------------3------------------|
|--------------------------------|---------------3----3-3--1---3--|
|                                                                  
|                                                                   
|                                                                    
|--------------------------------|--------------------------------|
|-----3----------3---------------|--------------------------------|
|-------2----------0---------(0)-|--------------------------------|
|-0-------0--2-------2-2---0--2--|---------3p2--------------------|
|------------3-----------3-------|-------------3------------------|
|--------------------------------|-1--1-1--------3----3-3--1---3--|


  Bb     C                                                               
|-------------------------------|
|-------------------------------|
|-------------------------------|
|--------2-3-2------------------|
|-1--1-1--------3~~~~~~~~~~~~~~-|
|-------------------------------|
|                                                                
|                                                                
|                                                                 
|-------------------------------|
|-------------------------------|
|-------------------------------|
|--------2h3p2------------------|
|-1--1-1--------3~~~~~~~~~~~~~~-|
|-------------------------------|


VERSE

  Dm7                                           G/b                 C        
|-10/12\10---10---10/12\10-------12--10-------|----------------------------------------------------|
|-10/12\10---10---10/12\10---10---------10----|----------------------------------------------------|
|-10/12\10---10---10/12\10---10------------10-|--------------------------------------12~~~~~~~~~~~~|
|---------------------------------------------|---------12--12------10---------14-15---------------|
|---------------------------------------------|---12h14---------10---------------------------------|
|---------------------------------------------|----------------------------------------------------|
|                                                                                                           
|                                                                                                          
|                                                                                                              
|---------0----0----------0-----------0-------|----------------------------------------------------|
|------3----3----------3-----3-----3-----3----|------------3---------------------------------------|
|-2-----------------2-----------2-----------0-|---------0--------------------0---------------------|
|-0--------------0----------------------------|-----------------0--------5--------3--5--3-----3----|
|---------------------------------------------|-2-------------------3----------5-----------5-------|
|---------------------------------------------|----------------------------------------------------|



  Dm7                                           G/b                 C        
|-10/12\10---10---10/12\10-------12--10-------|----------------------------------------------------|
|-10/12\10---10---10/12\10---10---------10----|----------------------------------------------------|
|-10/12\10---10---10/12\10---10------------10-|---------------------------------9-10-12-10-9h10----|
|---------------------------------------------|---------12--12------10-----------------------------|
|---------------------------------------------|---12h14---------10---------------------------------|
|---------------------------------------------|----------------------------------------------------|
|                                                                                                           
|                                                                                                          
|                                                                                                              
|---------0----0----------0-----------0-------|----------------------------------------------------|
|------3----3----------3-----3-----3-----3----|------------3---------------------------------------|
|-2-----------------2-----------2-----------0-|---------0--------------------0-----0---------------|
|-0--------------0----------------------------|-----------------0--------5------5-----5p3-----3----|
|---------------------------------------------|-2-------------------3---------------------5--------|
|---------------------------------------------|----------------------------------------------------|




  Dm7                                           G/b                 C        
|-10/12\10---10---10/12\10-------12--10-------|----------------------------------------------------|
|-10/12\10---10---10/12\10---10---------10----|----------------------------------------------------|
|-10/12\10---10---10/12\10---10------------10-|--------------------------------------12~~~~~~~~~~~~|
|---------------------------------------------|---------12--12------10---------14-15---------------|
|---------------------------------------------|---12h14---------10---------------------------------|
|---------------------------------------------|----------------------------------------------------|
|                                                                                                           
|                                                                                                          
|                                                                                                              
|---------0----0----------0-----------0-------|----------------------------------------------------|
|------3----3----------3-----3-----3-----3----|------------3---------------------------------------|
|-2-----------------2-----------2-----------0-|---------0--------------------0---------------------|
|-0--------------0----------------------------|-----------------0--------5--------3--5p3------3----|
|---------------------------------------------|-2-------------------3----------5-----------5-------|
|---------------------------------------------|----------------------------------------------------|



  Dm7                                           G/b                         C        
|-10/12\10---10---10/12\10-------12--10-------|----------------------------------------------------|
|-10/12\10---10---10/12\10---10---------10----|----------------------------------------------------|
|-10/12\10---10---10/12\10---10------------10-|---------------------------------------12~~~~~~~~~~~|
|---------------------------------------------|---------12--12-------10---------14-15--------------|
|---------------------------------------------|---12h14---------10---------------------------------|
|---------------------------------------------|----------------------------------------------------|
|                                                                                                           
|                                                                                                          
|                                                                                                              
|---------0----0----------0-----------0-------|----------------------------------------------------|
|------3----3----------3-----3-----3-----3----|-------------3-------3--------------3---------------|
|-2-----------------2-----------2-----------0-|-----0-------0-------0--------------0---------------|
|-0--------------0----------------------------|-5-------5-------5-------5---2---2------------------|
|---------------------------------------------|-----------------------------3---------0--3---------|
|---------------------------------------------|----------------------------------------------------|

Chorus:



  D           G                              D       C(addD)            
|-2-----------3----------------------------|-2------------------------|
|-3-----------3----------------------------|-3---------3--------------|
|-2-----0-----0----------------------------|-2---------0--------------|
|-0-----------0----------------------------|-0---------2--------------|
|-------------x----------------------------|-----------3---------0--3-|
|-------------3----------------------------|--------------------------|
|                                                                                               
|                                                                                                 
|                                                                                       
|------------------------------------------|--------------------------|
|-3----------------------------------------|-----3---------3----------|
|-2-----0h2p0----0-------------------------|-------2---------0--------|
|-0-----------4---------4h5p4p0-2--4--2----|-0-------0-2-------2------|
|----------------------------------------3-|-----------3---------0--3-|
|------------------------------------------|--------------------------|



 D           G                              D       C(addD)            
|-2-----------3-----------------3-----------|-2------------------------|
|-3-----------3-----------------3-----------|-3---------3--------------|
|-2-----0-----0------0--0-------0-----------|-2---------0--------------|
|-0-----------0------0--0-------0-----------|-0---------2--------------|
|-------------x-----------------x-----------|-----------3---------0--3-|
|-------------3-----------------3-----------|--------------------------|
|                                                                                               
|                                                                                                 
|                                                                                       
|------------------------------------------|--------------------------|
|-3----------------------------------------|-----3---------3----------|
|-2-----0h2p0----0-------------------------|-------2---------0--------|
|-0-----------4---------4h5p4p0-2--4--2----|-0-------0-2-------2------|
|----------------------------------------3-|-----------3---------0--3-|
|------------------------------------------|--------------------------|

  D              (G)                              C                      
|----------------------------------|----2---------------0--------|
|-3\-------------------------------|------3---------------1------|
|-2\-------------------------------|--------2h4------------------|
|-0----5h7p5-4--5~~~-4h5-2h4-2-----|-0----------------2----------|
|------------------------------3---|-------------3----------0--3-|
|----------------------------------|-----------------------------|
|                                                         
|                                                           
|                                                                   
|----------------------------------|-----------------------------|
|-3\-------------------------------|------3-----------3----------|
|-2\---5h7p5-4--5~~~-4h5-2h4-2-----|--------2-----------0--------|
|-0--------------------------------|-0--------0--2--------2------|
|------------------------------3---|-------------3----------0--3-|
|----------------------------------|-----------------------------|



 D               G                    D         C                    
|-----------------------------------|---2--------------------0-------|
|-3\--------------------------------|-----3----------------------0---|
|-2\--------------------------------|-------2h4--------0-------------|
|-0-----5h7p5-4--5~~~-4h5-2h4-2-----|-0--------------2---------------|
|-------------------------------3---|------------3-------------------|
|-----------------------------------|--------------------------------|
|                                                            
|                                                           
|                                                            
|-----------------------------------|--------------------------------|
|-3\--------------------------------|-----3----------3---------------|
|-2\----5h7p5-4--5~~~-4h5-2h4-2-----|-------2----------0---------(0)-|
|-0---------------------------------|-0-------0--2-------2-2---0--2--|
|-------------------------------3---|------------3-----------3-------|
|-----------------------------------|--------------------------------|

 Why________ am I here part:
  Clean guitar, with partial p.m. throughout
 N.C.(Dm7)                                                      C                                           
|----------------------------------------|-----------------------------------|
|----------------------------------------|-----------------------------------|
|----------------------------------------|---------------------------------0-|
|-----------------------------3p0--3p0---|-----------------------------3h5---|
|-3---5----------3---5-x-x-x-------------|-3---5-------x-x-x--3----3h5-------|
|----------------------------------------|-----------------------------------|
|                                                                                   
|                                                                                         
|                                                                            
|-15-------15----------------------------|-------------10--------------------|
|----13-------13----12----------------10-|----10-10-10-12-12-----------------|
|-------14-------14-12--------------12---|-12-10-10-10----12-----------------|
|----------------------------------------|-------------------12--------------|
|----------------------------------------|-------------------14--------------|
|----------------------------------------|-----------------------------------|



 N.C.(Dm7)                                                      C                                           
|----------------------------------------|-----------------------------------|
|----------------------------------------|-----------------------------------|
|----------------------------------------|-----------------------------------|
|-----------------------------3p0--3p0---|-----------------------------------|
|-3---5----------3---5-x-x-x-------------|-3---5-------x-x-x--3--------------|
|----------------------------------------|-----------------------------------|
|                                                                                   
|                                                                                         
|                                                                            
|-15-------15----------------------------|-------------10--------------------|
|----13-------13----12----------------10-|----10-10-10-12-12-----------------|
|-------14-------14-12--------------12---|-12-10-10-10----12-----------------|
|----------------------------------------|-------------------12--------------|
|----------------------------------------|-------------------14--------------|
|----------------------------------------|-----------------------------------|


* three guitars arranged for one gtr, with dist-
  D          C(addD)             D                                            
|-2----------------------------|-2------------------------|
|-3------------3---------------|-3------------------------|
|-2------------0---------------|-2------------------------|
|-0------------2---------------|-0------------------------|
|--------------3---------------|--------------------------|
|------------------------------|---------1------3~~-------|


  A               G                       A               G                                                          
|----------0---x------------------------|----------0---x------------------------|
|-2---2-2--2---x--0----0----------------|-2---2-2--2---x--0----0----------------|
|-2---2-2--2---x--0----0----------------|-2---2-2--2---x--0----0----------------|
|-2---2-2--2---x--0----0----------------|-2---2-2--2---x--0----0----------------|
|-0---0----0------x------------2--------|-0---0----0------x------------2--------|
|-----------------3----3--2--3---3--2h3-|-----------------3----3--2--3---3--2h3-|



  A               G                       A               G      
|-----------------------------------------|-------------------------------------|
|-----------------------------------------|-------------------------------------|
|-----------------------------------------|---------------------------------2---|
|-----------------------------------------|-------------------------------------|
|-----------------------------------------|-------------------------------------|
|-----------------------------------------|-------------------------------------|
|
|
|                                                    
|----------0---x------------------------|----------0---x------------------------|
|-2---2-2--2---x--0----0----------------|-2---2-2--2---x--0----0----------------|
|-2---2-2--2---x--0----0----------------|-2---2-2--2---x--0----0----------------|
|-2---2-2--2---x--0----0----------------|-2---2-2--2---x--0----0----------------|
|-0---0----0------x------------2--------|-0---0----0------x------------2--------|
|-----------------3----3--2--3---3--2h3-|-----------------3----3--2--3---3--2h3-|


Double time= 124
Guitar Solo  (fb= full bend, fpb= pre full bend, r= release bend,hb= half bend)

  A                           G                      A
|---------------------------|----------------------|----------------------------|
|---------------------------|----------------------|------------------------3~~~|
|4fb~~~~-4fpbr(4)p2---4---2~|~~~~~~~~~~~~~-----2-4-|4fb-----4fpbrr(4)p2--4------|
|-------------------4---4---|----------------4-----|----------------------------|
|---------------------------|----------------------|----------------------------|
|---------------------------|----------------------|----------------------------|
|                                                                                                
|                                                                                        
|                                                                                                  
|---------------------------|----------------------|---------------------------|
|-2---2----2----------------|---0---0--------------|-2---2----2----------------|
|-2---2----2--(2)-------0---|---0---0----------0---|-2---2----2--(2)-------0---|
|-2---2----2---0--------0---|---0---0-------(0)--0-|-2---2----2---0--------0---|
|-0---0----0------------x---|-----------2h3--------|-0---0----0------------x---|
|--------------2--------3---|---3---3--------------|--------------2--------3---|



  G                      A                           G
|----------------------|--------------5-------7----|---7---5-------5-5-5\3-|
|~~~~~~~~~~~~~~--2-3-5-|--3-5-5h7---------7--------|---7-7-7-------7-------|
|----------------------|---------------------------|-----------------------|
|----------------------|---------------------------|-----------------------|
|----------------------|---------------------------|-----------------------|
|----------------------|---------------------------|-----------------------|
|                                                                                                
|                                                                                        
|                                                                                                  
|----------------------|---------------------------|-----------------------|
|---0---0--------------|-2---2----2----------------|---0---0---------------|
|---0---0----------0---|-2---2----2--(2)-------0---|---0---0----------0----|
|---0---0-------(0)--0-|-2---2----2---0--------0---|---0---0-------(0)--0--|
|-----------2h3--------|-0---0----0------------x---|-----------2h3---------|
|---3---3--------------|--------------2--------3---|---3---3---------------|



  A                           G                      A   (* bend multiple times)
|-----2---------------------|----------------------|-----------------------------|
|-----2---------------------|----------------------|-----------------------------|
|4fb----4fbr(4)p2-------2~~~|~~~----2---4fb~~~~~~~~|4fbr(4)p2-4fbr(4)p2-4fbr(4)p2|*
|-----------------4---------|---4------------------|-----------------------------|
|---------------------------|----------------------|-----------------------------|
|---------------------------|----------------------|-----------------------------|
|                                                                                                
|                                                                                        
|                                                                                                  
|---------------------------|----------------------|----------0------------------|
|-2---2----2----------------|---0---0--------------|-2---2----2---0--------------|
|-2---2----2--(2)-------0---|---0---0----------0---|-2---2----2---2--------0-----|
|-2---2----2---0--------0---|---0---0-------(0)--0-|-2---2----2---2--------0-----|
|-0---0----0------------x---|-----------2h3--------|-0---0----0------------x-----|
|--------------2--------3---|---3---3--------------|-----------------------3-----|


  G           D                 A 
|-----------------------------|-----------------------------|
|-----------------------------|-----------------------------|
|4fbr(4)p2-4fbr(4)p2-4fbr(4)p2|-4fbr(4)p2----2~~~---(2)-----|
|-----------------------------|-----------4-------4--2--4---|
|-----------------------------|-----------------------------|
|-----------------------------|-----------------------------|
|                                                                              
|                                                                           
|                                                                           
|----------2---2---2----2---2-|----------0------------------|
|--3---3---3---3---3----3---3-|-2---2----2---0--------------|
|--0---0---2---2---2----2---2-|-2---2----2---2--------0-----|
|--0---0---0---0---0----0---0-|-2---2----2---2--------0-----|
|------x----------------------|-0---0----0------------x-----|
|------3----------------------|-----------------------3-----|


  G           D                 A 
|-----------------------------|-----------------------------|
|-----------------------------|----------------------2--3---|
|---2-----4hb----2----2-------|---------------2---4--2------|
|------4----------------------|--------2---4----------------|
|-----------------------------|-2---4-----------------------|
|-----------------------------|-----------------------------|
|                                                                              
|                                                                           
|                                                                           
|----------2---2---2----2---2-|----------0------------------|
|--3---3---3---3---3----3---3-|-2---2----2---0--------------|
|--0---0---2---2---2----2---2-|-2---2----2---2--------0-----|
|--0---0---0---0---0----0---0-|-2---2----2---2--------0-----|
|------x----------------------|-0---0----0------------x-----|
|------3----------------------|-----------------------3-----|


  G           D                 A 
|--------------------------5~~|~~~~~~~~~~-------5-----5--5//|
|-2-----5------2--------------|----------2------------------|
|----2---------------2--------|--------------2-----2--------|
|-----------------------------|-----------------------------|
|-----------------------------|-----------------------------|
|-----------------------------|-----------------------------|
|                                                                              
|                                                                           
|                                                                           
|----------2---2---2----2---2-|----------0------------------|
|--3---3---3---3---3----3---3-|-2---2----2---0--------------|
|--0---0---2---2---2----2---2-|-2---2----2---2--------0-----|
|--0---0---0---0---0----0---0-|-2---2----2---2--------0-----|
|------x----------------------|-0---0----0------------x-----|
|------3----------------------|-----------------------3-----|



  G                            
|/7---7---7---5---(5)----------|
|------------------0----0------|
|------------------0----0---0--|
|------------------0--------0--|
|------------------------------|  
|------------------------------| 
|                                                                                                                             
|                                                                                                                 
|                                                                                                                       
|----------7---8---8----7---0-|
|--3---3---8---8---8----8---0-|
|--0---0---7---7---7----7---0-|
|--0---0--------------------0-|
|------x----------------------|
|------3----------------------|

Simple Time= 82

  D                 C(addD)           D           G                                              
|-2---------------------------------|-2-----------3-----------------3----------|
|-3------------3--------------------|-3-----------3-----------------3----------|
|-2------------0--------------------|-2-----------0------0--0-------0----------|
|-0------------2--------------------|-0-----0-----0------0--0-------0----------|
|--------------3---------------0--3-|-------------x-----------------x----------|
|-----------------------------------|-------------3-----------------3----------|
|                                                                                       
|                                                                                  
|                                                                     
|(2)-------2------------------------|------------------------------------------|
|-3--------3---------3--------------|-3----------------------------------------|
|-2--------2---2-----0-0--0---------|-2-----0h2p0----0-------------------------|
|-0--------0---0-----2-2--2---------|-0-----------4---------4h5p4p0-2--4--2----|
|-----------------0--3----3----0--3-|----------------------------------------3-|
|-----------------------------------|------------------------------------------|



  D        C(addD)               D              (G)                       
|-0h2--2-0-0-------------------|----------------------------------|
|-3----3-3-3--3----3-1-0-------|-3\-------------------------------|
|-2----2-2-2--0----0-0-0-------|-2\-------------------------------|
|-0----0-0----2----2-2-2-------|-0----5h7p5-4--5~~~-4h5-2h4-2-----|
|-------------3----------0--3--|------------------------------3---|
|------------------------------|----------------------------------|
|                                                         
|                                                           
|                                                                   
|------------------------------|----------------------------------|
|------3-----------3-----------|-3\-------------------------------|
|--------2-----------0---------|-2\---5h7p5-4--5~~~-4h5-2h4-2-----|
|-0--------0--2--------2-------|-0--------------------------------|
|-------------3----------0--3--|------------------------------3---|
|------------------------------|----------------------------------|



  D         C                     (F)            G                                   
|---2--------------------0-------|--------------------------------|
|-----3----------------------0---|--------------------------------|
|-------2h4--------0-------------|--------------------------------|
|-0--------------2---------------|-3--3-3--3p2--------------------|
|------------3-------------------|-------------3------------------|
|--------------------------------|---------------3----3-3--1---3--|
|                                                                  
|                                                                   
|                                                                    
|--------------------------------|--------------------------------|
|-----3----------3---------------|--------------------------------|
|-------2----------0---------(0)-|--------------------------------|
|-0-------0--2-------2-2---0--2--|---------3p2--------------------|
|------------3-----------3-------|-------------3------------------|
|--------------------------------|-1--1-1--------3----3-3--1---3--|


  Bb     C                       (F)            G                                        
|-------------------------------|--------------------------------|
|-------------------------------|-0------------------------------|
|-------------------------------|--------------------------------|
|--------2-3-2------------------|-3--3-3--3p2--------------------|
|-1--1-1--------3~~~~~~~~~~~~~~-|-------------3------------------|
|-------------------------------|---------------3----3-3--1---3--|
|                                                                
|                                                                
|                                                                 
|-------------------------------|--------------------------------|
|-------------------------------|--------------------------------|
|-------------------------------|--------------------------------|
|--------2h3p2------------------|---------3p2--------------------|
|-1--1-1--------3~~~~~~~~~~~~~~-|-------------3------------------|
|-------------------------------|-1--1-1--------3----3-3--1---3--|



 Bb     C                                                                           
|-------------------------------|----------10--10------------|
|-------------------------------|----------10--10------------|
|-------------------------------|----------10--10------------|
|--------2-3-2------------------|----------------------------|
|-1--1-1--------3~~~~~~~~~~~~~~-|----------------------------|
|-------------------------------|----------------------------|
|                                                                
|                                                                
|                                                                 
|-------------------------------|----------------------------|
|-------------------------------|----------------------------|
|-------------------------------|----------------------------|
|--------2h3p2------------------|----------------------------|
|-1--1-1--------3~~~~~~~~~~~~~~-|----------------------------|
|-------------------------------|----------------------------|


Verse 2 

  Dm7                                           G/b                 C        
|-10/12\10---10---10/12\10-------12--10-------|----------------------------------------------------|
|-10/12\10---10---10/12\10---10---------10----|----------------------------------------------------|
|-10/12\10---10---10/12\10---10------------10-|--------------------------------------12~~~~~~~~~~~~|
|---------------------------------------------|---------12--12------10---------14-15---------------|
|---------------------------------------------|---12h14---------10---------------------------------|
|---------------------------------------------|----------------------------------------------------|
|                                                                                                           
|                                                                                                          
|                                                                                                              
|---------0----0----------0-----------0-------|----------------------------------------------------|
|------3----3----------3-----3-----3-----3----|------------3---------------------------------------|
|-2-----------------2-----------2-----------0-|---------0--------------------0---------------------|
|-0--------------0----------------------------|-----------------0--------5--------3--5--3-----3----|
|---------------------------------------------|-2-------------------3----------5-----------5-------|
|---------------------------------------------|----------------------------------------------------|



  Dm7                                           G/b                 C        
|-10/12\10---10---10/12\10-------12--10-------|----------------------------------------------------|
|-10/12\10---10---10/12\10---10---------10----|----------------------------------------------------|
|-10/12\10---10---10/12\10---10------------10-|---------------------------------9-10-12-10-9h10----|
|---------------------------------------------|---------12--12------10-----------------------------|
|---------------------------------------------|---12h14---------10---------------------------------|
|---------------------------------------------|----------------------------------------------------|
|                                                                                                           
|                                                                                                          
|                                                                                                              
|---------0----0----------0-----------0-------|----------------------------------------------------|
|------3----3----------3-----3-----3-----3----|------------3---------------------------------------|
|-2-----------------2-----------2-----------0-|---------0--------------------0-----0---------------|
|-0--------------0----------------------------|-----------------0--------5------5-----5p3-----3----|
|---------------------------------------------|-2-------------------3---------------------5--------|
|---------------------------------------------|----------------------------------------------------|




  Dm7                                           G/b                 C        
|-10/12\10---10---10/12\10-------12--10-------|----------------------------------------------------|
|-10/12\10---10---10/12\10---10---------10----|----------------------------------------------------|
|-10/12\10---10---10/12\10---10------------10-|--------------------------------------12~~~~~~~~~~~~|
|---------------------------------------------|---------12--12------10---------14-15---------------|
|---------------------------------------------|---12h14---------10---------------------------------|
|---------------------------------------------|----------------------------------------------------|
|                                                                                                           
|                                                                                                          
|                                                                                                              
|---------0----0----------0-----------0-------|----------------------------------------------------|
|------3----3----------3-----3-----3-----3----|------------3---------------------------------------|
|-2-----------------2-----------2-----------0-|---------0--------------------0---------------------|
|-0--------------0----------------------------|-----------------0--------5--------3--5p3------3----|
|---------------------------------------------|-2-------------------3----------5-----------5-------|
|---------------------------------------------|----------------------------------------------------|



  Dm7                                           G/b                         C        
|-10/12\10---10---10/12\10-------12--10-------|----------------------------------------------------|
|-10/12\10---10---10/12\10---10---------10----|----------------------------------------------------|
|-10/12\10---10---10/12\10---10------------10-|---------------------------------------12~~~~~~~~~~~|
|---------------------------------------------|---------12--12-------10---------14-15--------------|
|---------------------------------------------|---12h14---------10---------------------------------|
|---------------------------------------------|----------------------------------------------------|
|                                                                                                           
|                                                                                                          
|                                                                                                              
|---------0----0----------0-----------0-------|----------------------------------------------------|
|------3----3----------3-----3-----3-----3----|-------------3-------3--------------3---------------|
|-2-----------------2-----------2-----------0-|-----0-------0-------0--------------0---------------|
|-0--------------0----------------------------|-5-------5-------5-------5---2---2------------------|
|---------------------------------------------|-----------------------------3---------0--3---------|
|---------------------------------------------|----------------------------------------------------|

Chorus:



  D           G                              D       C(addD)            
|-2-----------3----------------------------|-2------------------------|
|-3-----------3----------------------------|-3---------3--------------|
|-2-----0-----0----------------------------|-2---------0--------------|
|-0-----------0----------------------------|-0---------2--------------|
|-------------x----------------------------|-----------3---------0--3-|
|-------------3----------------------------|--------------------------|
|                                                                                               
|                                                                                                 
|                                                                                       
|------------------------------------------|--------------------------|
|-3----------------------------------------|-----3---------3----------|
|-2-----0h2p0----0-------------------------|-------2---------0--------|
|-0-----------4---------4h5p4p0-2--4--2----|-0-------0-2-------2------|
|----------------------------------------3-|-----------3---------0--3-|
|------------------------------------------|--------------------------|



 D           G                              D       C(addD)            
|-2-----------3-----------------3-----------|-2------------------------|
|-3-----------3-----------------3-----------|-3---------3--------------|
|-2-----0-----0------0--0-------0-----------|-2---------0--------------|
|-0-----------0------0--0-------0-----------|-0---------2--------------|
|-------------x-----------------x-----------|-----------3---------0--3-|
|-------------3-----------------3-----------|--------------------------|
|                                                                                               
|                                                                                                 
|                                                                                       
|------------------------------------------|--------------------------|
|-3----------------------------------------|-----3---------3----------|
|-2-----0h2p0----0-------------------------|-------2---------0--------|
|-0-----------4---------4h5p4p0-2--4--2----|-0-------0-2-------2------|
|----------------------------------------3-|-----------3---------0--3-|
|------------------------------------------|--------------------------|

  D              (G)                              C                      
|----------------------------------|----2---------------0--------|
|-3\-------------------------------|------3---------------1------|
|-2\-------------------------------|--------2h4------------------|
|-0----5h7p5-4--5~~~-4h5-2h4-2-----|-0----------------2----------|
|------------------------------3---|-------------3----------0--3-|
|----------------------------------|-----------------------------|
|                                                         
|                                                           
|                                                                   
|----------------------------------|-----------------------------|
|-3\-------------------------------|------3-----------3----------|
|-2\---5h7p5-4--5~~~-4h5-2h4-2-----|--------2-----------0--------|
|-0--------------------------------|-0--------0--2--------2------|
|------------------------------3---|-------------3----------0--3-|
|----------------------------------|-----------------------------|



 D               G                    D         C                    
|-----------------------------------|---2--------------------0-------|
|-3\--------------------------------|-----3----------------------0---|
|-2\--------------------------------|-------2h4--------0-------------|
|-0-----5h7p5-4--5~~~-4h5-2h4-2-----|-0--------------2---------------|
|-------------------------------3---|------------3-------------------|
|-----------------------------------|--------------------------------|
|                                                            
|                                                           
|                                                            
|-----------------------------------|--------------------------------|
|-3\--------------------------------|-----3----------3-3-3--3--3-3-3-|
|-2\----5h7p5-4--5~~~-4h5-2h4-2-----|-------2--------0-0-0--0--0-0-0-|
|-0---------------------------------|-0-------0--2---2-2-2--2--2-2-2-|
|-------------------------------3---|------------3-------------3-----|
|-----------------------------------|--------------------------------|


  D             C           D              C                                       
|-2-----------------------|{2--------------------------------|
|-3-------------1---------|{3--------------------------------|
|-2-------------0---------|{2--------------------------------|
|-0-------------2---------|{0--------------------------------|
|---------------3---------|----------------------------------|
|-------------------------|----------------------------------|
|                                                                        
|                                                                     
|                                                                                 
|-------------------------|-----0----0-------0------------0--|
|-3-----------------------|-7-5h7----5--5------5-5-5-5-5-----|
|-2-------------0---------|-7---7--7-5--5------5-5-5-5-------|
|-0-------------2---------|-0---0----------------------------|
|---------------3---------|----------------------------------|
|-------------------------|----------------------------------|



  G               D                         C                                        
|-----------------------------------------|----------------------------------|
|-----------------------------------------|----------------------------------|
|-----------------------------------------|----------------------------------|
|-----------------------------------------|----------------------------------|
|-----------------------------------------|----------------------------------|
|-----------------------------------------|----------------------------------|
|                                                                        
|                                                                     
|                                                                                 
|--0---0--0--0--0--------0-----0--0--0--0-|-----0----0-------0------------0--|
|/12--12-12-12----10-------10-10-10-10-10\|-7-5h7----5--5------5-5-5-5-5-----|
|/12--12-12-12----11-------11-11-11-11-11\|-7---7--7-5--5------5-5-5-5-------|
|--0--------------------------------------|-0---0----------------------------|
|-----------------------------------------|----------------------------------|
|-----------------------------------------|----------------------------------|

Outro:

  G               D                         C                                        
|-----------------------------------------|----------------------------------|
|-----------------------------------------|----------------------------------|
|-----------------------------------------|-14~~~~~~~~~~~~~~~~~~~~~~~~~~~~~~~|
|-----------------------------------12h15-|----------------------------------|
|-----------------------------------------|----------------------------------|
|-----------------------------------------|----------------------------------|
|                                                                        
|                                                                     
|                                                                                 
|--0---0--0--0--0--------0-----0--0--0--0-|-----0----0-------0------------0--|
|/12--12-12-12----10-------10-10-10-10-10\|-7-5h7----5--5------5-5-5-5-5-----|
|/12--12-12-12----11-------11-11-11-11-11\|-7---7--7-5--5------5-5-5-5-------|
|--0--------------------------------------|-0---0----------------------------|
|-----------------------------------------|----------------------------------|
|-----------------------------------------|----------------------------------|



  G               D                         C                                        
|-----------------------------------------|----------------------------------|
|-----------------------------------------|----------------------------------|
|~~~~~~~~~~~~~~~~~~-----------------------|-14~~~~~~~~~~~~~~~~~~~~~~~~~~~~~~~|
|-----------------------------------12h15-|----------------------------------|
|-----------------------------------------|----------------------------------|
|-----------------------------------------|----------------------------------|
|                                                                        
|                                                                     
|                                                                                 
|--0---0--0--0--0--------0-----0--0--0--0-|-----0----0-------0------------0--|
|/12--12-12-12----10-------10-10-10-10-10\|-7-5h7----5--5------5-5-5-5-5-----|
|/12--12-12-12----11-------11-11-11-11-11\|-7---7--7-5--5------5-5-5-5-------|
|--0--------------------------------------|-0---0----------------------------|
|-----------------------------------------|----------------------------------|
|-----------------------------------------|----------------------------------|



  G               D                         C                                        
|-----------------------------------------|----------------------------------|
|-----------------------------------------|----------------------------------|
|-12h14p12~~~~~~~~~~~~~~~~~~~-14p12h14p12-|-10-------------------------------|
|-----------------------------------------|----12----------------------------|
|-----------------------------------------|----------------------------------|
|-----------------------------------------|----------------------------------|
|                                                                        
|                                                                     
|                                                                                 
|--0---0--0--0--0--------0-----0--0--0--0-|-----0----0-------0------------0--|
|/12--12-12-12----10-------10-10-10-10-10\|-7-5h7----5--5------5-5-5-5-5-----|
|/12--12-12-12----11-------11-11-11-11-11\|-7---7--7-5--5------5-5-5-5-------|
|--0--------------------------------------|-0---0----------------------------|
|-----------------------------------------|----------------------------------|
|-----------------------------------------|----------------------------------|



  G               D                         C                                        
|-----------------------------------------|----------------------------------|
|-----------------------------------------|------------15~~~~~~~~~~~~~~~~~~~~|
|-----------------------------------------|-14~~~~~~~~-----------------------|
|----------------------(12)\\------/12h15-|----------------------------------|
|-----------------------------------------|----------------------------------|
|-----------------------------------------|----------------------------------|
|                                                                        
|                                                                     
|                                                                                 
|--0---0--0--0--0--------0-----0--0--0--0-|-----0----0-------0------------0--|
|/12--12-12-12----10-------10-10-10-10-10\|-7-5h7----5--5------5-5-5-5-5-----|
|/12--12-12-12----11-------11-11-11-11-11\|-7---7--7-5--5------5-5-5-5-------|
|--0--------------------------------------|-0---0----------------------------|
|-----------------------------------------|----------------------------------|
|-----------------------------------------|----------------------------------|



  G               D                         C                                        
|-13-12h13p12~~~~~~~~~~~~-12--13p12----12-|-15~~~~-13p12------------12h13p12-|
|-----------------------------------15----|---------------15~~~~~~~----------|
|-----------------------------------------|----------------------------------|
|-----------------------------------------|----------------------------------|
|-----------------------------------------|----------------------------------|
|-----------------------------------------|----------------------------------|
|                                                                        
|                                                                     
|                                                                                 
|--0---0--0--0--0--------0-----0--0--0--0-|-----0----0-------0------------0--|
|/12--12-12-12----10-------10-10-10-10-10\|-7-5h7----5--5------5-5-5-5-5-----|
|/12--12-12-12----11-------11-11-11-11-11\|-7---7--7-5--5------5-5-5-5-------|
|--0--------------------------------------|-0---0----------------------------|
|-----------------------------------------|----------------------------------|
|-----------------------------------------|----------------------------------|



  G               D                         C                                        
|-15-----13p12----------------------------|----------------------------------|
|--------------15~~~~~~~~~~~~~~~~~~-------|----------------------------------|
|-----------------------------------------|-14fb~~~~~~~~~~~~~~~~-------------|
|-----------------------------------12h15-|----------------------------------|
|-----------------------------------------|----------------------------------|
|-----------------------------------------|----------------------------------|
|                                                                        
|                                                                     
|                                                                                 
|--0---0--0--0--0--------0-----0--0--0--0-|-----0----0-------0------------0--|
|/12--12-12-12----10-------10-10-10-10-10\|-7-5h7----5--5------5-5-5-5-5-----|
|/12--12-12-12----11-------11-11-11-11-11\|-7---7--7-5--5------5-5-5-5-------|
|--0--------------------------------------|-0---0----------------------------|
|-----------------------------------------|----------------------------------|
|-----------------------------------------|----------------------------------|

Freely
  G  (*= heavy vibrato)                     Slowly                              
|-----------------------------------------|----------------------------------|
|-----------------------------------------|-------------3--------------------|
|-14fbr(14)p12*********\\\\\\\\\\\\\\\\\\\|\2h3p2p0-2------------------------|
|-----------------------------------------|-----------0----------------------|
|-----------------------------------------|----------------------------------|
|-----------------------------------------|----------------------------------|
|                                                                        
|                                                                     
|                                                                                 
|-----------------------------------------|----------------------------------|
|-----5/12-(12)---------------------------|----------------------------------|
|-----5/12--12----------------------------|----------------------------------|
|-----------------------------------------|----------------------------------|
|-----------------------------------------|----------------------------------|
|-----------------------------------------|----------------------------------|


That's it. I'm warn out now:) Hope you enjoy
comments
print report bad tab
4 comments total. Showing first comments.
0 reply
Max Cady wrote on September 27 2003, 12:00 am

Pretty damn perfect!!

0 reply
hoon4 wrote on February 19 2005, 12:00 am

nice tab man...thnx for postin it....i hope u can most nore blind melon tabs!!

0 reply
ringette18 wrote on February 1 2010, 12:56 am

bloody amazing!!!!!

I want to post or [tab]
guest
You may want to rate the tab now too:
select rating
Please do not post tabs as comments. Select "correction" instead!