Oops, an error
Loading. Please wait.

No Rain Tab

ver6
ver6

Intro

Solo

More versions @911Tabs.com
506 views 3 this week
no commentswrite comment
1 2 3 4 5
please rate
Autoscroll
+/-
esc
set tempo
stop
Contributor
Difficulty
intermediate
Hey! There's an official Ultimate Guitar app which is ideal
for learning songs when you're away from computer. Get the app
WARNING: You are trying to view
                                    content from Ultimate-Guitar.com
                                    in an unauthorized application,
                                    which is prohibited.

                                    Please use an official Ultimate
                                    Guitar Tabs application for iPhone,
                                    iPad or Android to access legitimate
                                    chords, guitar, bass, and drum tabs
                                    from Ultimate-Guitar.com database.

                                    Type "ultimate guitar tabs" in Apple
                                    App Store's or Android Market's
                                    search to find the application.
-------------------------------------------------------------------------------
                                      NO RAIN - Blind Melon
-------------------------------------------------------------------------------
Tabbed by:  Jon Nelson
E-mail:  jon.nelson80@yahoo.com

This is my first tab.  I couldn't find tabs for the solo anywhere so I created 
tabs for both solos to go along with the rest of the song as well.  Enjoy!

Tuning: Standard EADGBe


INTRO:

e|---------------------------------------------------------------------------|
B|----------10--10-10/12-------10--10-10/12-------10--10/12------------------|
G|------------------------9------------------9---------------9---------------|
D|---------------------------------------------------------------------------|
A|---------------------------------------------------------------------------|
E|---------------------------------------------------------------------------|

e|----------------------------------------------------------------------|
B|------------------10-9-10-7-------------------------------------------|
G|----------------------------9-7-----------7-9-7-9---------------------| Play
D|----------------------------------------------------------------------| 3 Times
A|----------------------------------------------------------------------|
E|----------------------------------------------------------------------|

e|---------------------------------9h10---9----------------------------------|
B|---------------------10-9-10-10-----------10-------------------------------|
G|---------------------------------------------9-----------------------------|
D|---------------------------------------------------------------------------|
A|---------------------------------------------------------------------------|
E|---------------------------------------------------------------------------|

CHORUS 1:

e|---------------------------------------------------------------------------|
B|------9h10-9-------9h10-9--------------------------------------------------|
G|--9-----------7------------------------------------9----11b-11b--7---------|
D|---------------------------7----5--5---7/9----9--9-------------------------|
A|---------------------------------------------------------------------------|
E|---------------------------------------------------------------------------|

e|---------------------------------------------------------------------------|
B|---------------------------------10--10/12--------10--10/12----------------|
G|------11b-11b-------------------------------9----------------9-------------|
D|---------------7-----5--5--5-----------------------------------------------|
A|------------------------------7--------------------------------------------|
E|---------------------------------------------------------------------------|

VERSE 1:

e|----------------------------------------------------------------------|
B|------------------10-9-10-7-------------------------------------------|
G|----------------------------9-7-----------7-9-7-9---------------------| Play
D|----------------------------------------------------------------------| 3 Times
A|----------------------------------------------------------------------|
E|----------------------------------------------------------------------|

e|---------------------------------9h10---9----------------------------------|
B|---------------------10-9-10-10-----------10-------------------------------|
G|---------------------------------------------9-----9-----------------------|
D|---------------------------------------------------------------------------|
A|---------------------------------------------------------------------------|
E|---------------------------------------------------------------------------|

e|----------------------------------------------------------------------|
B|------------------10-9-10-7-------------------------------------------|
G|----------------------------9-7-----------7-9-7-9---------------------| Play
D|----------------------------------------------------------------------| 3 Times
A|----------------------------------------------------------------------|
E|----------------------------------------------------------------------|

e|---------------------------------------------------------------------------|
B|---------------------------------------------------------------------------|
G|---------------------10-9-10-10----10/12--10-9-----------------------------|
D|---------------------------------------------------------------------------|
A|---------------------------------------------------------------------------|
E|---------------------------------------------------------------------------|

CHORUS 2:

e|---------------------------------------------------------------------------|
B|------9h10-9-------9h10-9--------------------------------10------------12--|
G|--9-----------7------------------------------9----11b--9-------11b--9------|
D|---------------------------7----5--5---7/9---------------------------------|
A|---------------------------------------------------------------------------|
E|---------------------------------------------------------------------------|

e|---------------------------------------------------------------------------|
B|----------------10--10-10/12-----10--10/12-----10--10/12-----10--10-10/12--|
G|------------------------------9-------------9-------------9----------------|
D|--5--5--5------------------------------------------------------------------|
A|-----------7---------------------------------------------------------------|
E|---------------------------------------------------------------------------|

SOLO 1:

e|---------------------------------12-9---10--9---10-9---10---9--------------|
B|----------10p9---12-9---10-9----------------9------9---9------9------------|
G|-------9-------9------9------9-9------9-------9------9----9----------------|
D|---------------------------------------------------------------------------|
A|---------------------------------------------------------------------------|
E|---------------------------------------------------------------------------|

e|--9-10-9-9-12-9-9-10-9-9-12-9-9-10-9-9-12-9-9-10-9-9-12-9-9-10-9-9-10-9-9--|
B|--9-10-9-9-12-9-9-10-9-9-12-9-9-10-9-9-12-9-9-10-9-9-12-9-9--9-9-9--9-9-9--|
G|---------------------------------------------------------------------------|
D|---------------------------------------------------------------------------|
A|---------------------------------------------------------------------------|
E|---------------------------------------------------------------------------|

e|------------12-9-9-10-9-9-14-9-9-12-12-9-12-9-9-9--------------------------|
B|-------------9-9-9--9-9-9--9-9-9--9--9-9--9-9-9-9--------------------------|
G|--------------------------------------------9-9-9--------------------------|
D|---------------------------------------------------------------------------|
A|---------------------------------------------------------------------------|
E|---------------------------------------------------------------------------|

e|-------------------------------------------------------9----9----10-9----12--|
B|--9\7-7-7\5-5-5\3-3-3\2-2-2/3-3-3/5-5-5/7-7-7/9-9-9h10---10---10------10-----|
G|-----------------------------------------------------------------------------|
D|-----------------------------------------------------------------------------|
A|-----------------------------------------------------------------------------|
E|-----------------------------------------------------------------------------|

e|---9--9---------------------7------7--------------------------------------------|
B|--10-10------9-7---7---7----7----7---10-7---7-----------------------------------|
G|------9-9b-7-9-7-9-7---7-9b-7-9b----------9---9-7-9p7---7---------------7-9p7---|
D|-----------------9---9--------------------------------9---9-7-9p7---7-9-------9-|
A|------------------------------------------------------------------9-------------|
E|--------------------------------------------------------------------------------|

CHORUS 3:

e|---------------------------------------------------------------------------|
B|-------9h10-9-9------9h10-9-9----------------------------------------------|
G|--9-------------7----------------------------------------------------------|
D|------------------------------7----5-5-5-5-5-------------------------------|
A|---------------------------------------------7-----------------------------|
E|---------------------------------------------------------------------------|

e|---------------------------------------------------------------------------|
B|------------10--10/12------10--12/12------10--10/12------------------------|
G|----------------------9--------------9--------------9----------------------|
D|---------------------------------------------------------------------------|
A|---------------------------------------------------------------------------|
E|---------------------------------------------------------------------------|

VERSE 2:

e|----------------------------------------------------------------------|
B|------------------10-9-10-7-------------------------------------------|
G|----------------------------9-7-----------7-9-7-9---------------------| Play
D|----------------------------------------------------------------------| 3 Times
A|----------------------------------------------------------------------|
E|----------------------------------------------------------------------|

e|---------------------------------9h10---9----------------------------------|
B|---------------------10-9-10-10-----------10-------------------------------|
G|---------------------------------------------9-----9-----------------------|
D|---------------------------------------------------------------------------|
A|---------------------------------------------------------------------------|
E|---------------------------------------------------------------------------|

e|----------------------------------------------------------------------|
B|------------------10-9-10-7-------------------------------------------|
G|----------------------------9-7-----------7-9-7-9---------------------| Play
D|----------------------------------------------------------------------| 2 Times
A|----------------------------------------------------------------------|
E|----------------------------------------------------------------------|

e|---------------------------------------------------------------------------|
B|--10-9-10-7----------------------------------------------------------------|
G|------------9-7----9b--9--9--11b--9----9--9--------------------------------|
D|---------------------------------------------------------------------------|
A|---------------------------------------------------------------------------|
E|---------------------------------------------------------------------------|

SOLO 2:

e|------------------------------12-9---10-9---10-9---10---9---9-10-9-9-12----|
B|--10p9---12-9---10-9---12-9------9----9-9----9-9----9---9-9-9-10-9-9-12----|
G|-------9------9------9------9------9------9------9----9---9----------------|
D|---------------------------------------------------------------------------|
A|---------------------------------------------------------------------------|
E|---------------------------------------------------------------------------|

e|--9-9-10-9-9-12-9-9-10-9-9-12-9-9-10-9-9-12-9-9-10-9-9-10-9-9-12-9-9-10----|
B|--9-9-10-9-9-12-9-9-10-9-9-12-9-9-10-9-9-12-9-9--9-9-9--9-9-9--9-9-9--9----|
G|---------------------------------------------------------------------------|
D|---------------------------------------------------------------------------|
A|---------------------------------------------------------------------------|
E|---------------------------------------------------------------------------|

e|--9-9-14-9-12-9-9-9------7-------------------------------------------------|
B|--9-9--9-9--9-9-9-9----7---10-7---7----------------------------------------|
G|----------------9-9-9b----------9---9-7-9p7---7---------------7-9p7---9----|
D|--------------------------------------------9---9-7-9p7---7-9-------9------|
A|--------------------------------------------------------9------------------|
E|---------------------------------------------------------------------------|

OUTRO:

e|-----10-12-12-------10-12-12-----------------------------------------------|
B|--11-------------12--------------------------------------------------------|
G|---------------------------------11b-9-11-9--------------------------------|
D|---------------------------------------------------------------------------|
A|---------------------------------------------------------------------------|
E|---------------------------------------------------------------------------|
************************************

| /   slide up
| \   slide down
| h   hammer-on
| p   pull-off
| b   Bend


************************************
comments
We did not receive enough feedback on this tab! Please rate:
print report bad tab
1 2 3 4 5
I want to post or [tab]
guest
You may want to rate the tab now too:
select rating
Please do not post tabs as comments. Select "correction" instead!