Oops, an error
Loading. Please wait.

All Alone Tab

ver1
ver1

Whole song

Interactive

More versions @911Tabs.com
1,566 views 21 this week
no commentswrite comment
1 2 3 4 5
excellent!
x 2
Autoscroll
+/-
esc
set tempo
stop
Contributor
Difficulty
Tuning
intermediate
B F# B E G# C#
Hey! There's an official Ultimate Guitar app which is ideal
for learning songs when you're away from computer. Get the app
WARNING: You are trying to view
                                    content from Ultimate-Guitar.com
                                    in an unauthorized application,
                                    which is prohibited.

                                    Please use an official Ultimate
                                    Guitar Tabs application for iPhone,
                                    iPad or Android to access legitimate
                                    chords, guitar, bass, and drum tabs
                                    from Ultimate-Guitar.com database.

                                    Type "ultimate guitar tabs" in Apple
                                    App Store's or Android Market's
                                    search to find the application.
[All Alone]
[Nightmare On Providence St.]
[Blind Witness]

Tuning: BF#BEG#C# (Drop B / Drop D 1.5 Steps Down)
joshuaoliveira@hotmail.com

[Riff 1] - [00:01] - [00:18-----------------------------------------| - [2x]
- ------------------------------------------------------------------|
- ------------------------------------------------------------------|
- -6-----------6-------6-------6---7--------------------------------|
- -x-----------x-------x-------x---x--------------------------------|
- -4---000-000-4---000-4---000-4---5---000-000-000-000-000-000-000--|
- -----000-000-----000-----000---------000-000-000-000-000-000-000--|
PM     .......     ...     ...         ...........................

- -----------------------------------------------------------------|
- -----------------------------------------------------------------|
- -----------------------------------------------------------------|
- -5-----------8---7---5---3---5---1-----------------------3-------|
- -5---555-555-8---7---5---3---5---1---111-111-111-111-111-3---333-|
- -5---555-555-8---7---5---3---5---1---111-111-111-111-111-3---333-|
PM     .......                         ...................     ...

[Riff 2] - [00:09] - [00:18]
- -----------------------------------------------------------------|
- -----------------------------------------------------------------|
- -9-----------9-------9-------9---10------------------------------|
- -x-----------x-------x-------x---x-------------------------------|
- -7---000-000-7---000-7---000-7---8---000-000-000-000-000-000-000-|
- -----000-000-----000-----000---------000-000-000-000-000-000-000-|
PM     .......     ...     ...         ...........................

- -----------------------------------------------------------------|
- -----------------------------------------------------------------|
- -----------------------------------------------------------------|
- -5-----------8---7---5---3---5---1-----------------------3-------|
- -5---555-555-8---7---5---3---5---1---111-111-111-111-111-3---333-|
- -5---555-555-8---7---5---3---5---1---111-111-111-111-111-3---333-|
PM     .......                         ...................     ...

----------------------------------------------------------------------------

[Riff 3] - [00:18] - [00:34-----------------------------------------| - [2x]
- ------------------------------------------------------------------|
- ------------------------------------------------------------------|
- ------------------------------------------------------------------|
- -----------------------------------------------------8---7---5----|
- -4-----------4-------4-------4---5---8---7---5---4----------------|
- ---0-0-0-0-0---0-0-0---0-0-0---0---0---0---0---0---0---0---0---0--|
PM   .........   .....   .....   .   .   .   .   .   .   .   .   .

- -----------------------------------------------------------------|
- -----------------------------------------------------------------|
- -----------------------------------------------------------------|
- -------------8---7---5-------5-----------5---7---8---7---5-------|
- -5-----------------------8-------7---8-----------------------8---|
- ---5-5-5-5-5---5---5---5---5---5---5---5---5---5---5---5---5---5-|
PM   .........   .   .   .   .   .   .   .   .   .   .   .   .   .

[Riff 4] - [00:26] - [00:34]
- -----------------------------------------------------------------|
- -----------------------------------------------------------------|
- -----------------------------------------------------7---5-------|
- -------------------------------------7---5-------------------8---|
- -7-----------7-------7-------7---8-----------8---7---------------|
- ---0-0-0-0-0---0-0-0---0-0-0---0---0---0---0---0---0---0---0---0-|
PM   .........   .....   .....   .   .   .   .   .   .   .   .   .

- -----------------------------------------------------------------|
- -----------------------------------------------------------------|
- -------------7---5---------------------------5---7---5-----------|
- -7-------------------8---7---8---5---7---8---------------8---7---|
- -----------------------------------------------------------------|
- ---5-5-5-5-5---5---5---5---5---5---5---5---5---5---5---5---5---5-|
PM   .........   .   .   .   .   .   .   .   .   .   .   .   .   .

----------------------------------------------------------------------------

[Riff 5] - [00:34] - [00:36]
- -----------------|
- -----------------|
- -----------------|
- -0~--------------|
- -0~--------------|
- -0~--------------|

----------------------------------------------------------------------------

[Riff 6] - [00:36] - [00:45]
- -----------------------------------------------------------------|
- -----------------------------------------------------------------|
- -----------------------------------------------------------------|
- -----------------------------------------------------------------|
- -00000---00000-------00000-------1-1-1-1-1-1-1-1-1---1---11111---|
- -00000---00000-------00000-------2-2-2-2-2-2-2-2-2---2---22222---|
PM ...............................................................

[Riff 7, Guitar 1 & ] - [00:45] - [00:51]
- -----------------------------------------------------------------|
- -----------------------------------------------------------------|
- -----------------------------------------------------------------|
- -----------------------------------------------------------------|
- -------------000---000---------000---------000---------------000-|
- -------------000---000---------000---------000---------------000-|
PM ...............................................................
-
- -----------------------------------------------------------------|
- -----------------------------------------------------------------|
- -----------------------------------------------------------------|
- -----------------------------------------------------------------|
- -000---000---------------000---------000---------000---000-------|
- -000---000---------------000---------000---------000---000-------|
PM ...............................................................

[Riff 8] - [00:51] - [00:57]
- -----------------------------------------------------------------|
- -----------------------------------------------------------------|
- -----------------------------------------------------------------|
- -----------------------------------------------------------------|
- -00000---00000-------00000-------1-1-1-1-1-1-1-1-1---1---11111---|
- -00000---00000-------00000-------2-2-2-2-2-2-2-2-2---2---22222---|
PM ...............................................................

- -----------------------------------------------------------------|
- -----------------------------------------------------------------|
- -----------------------------------------------------------------|
- ---------------------------------2~------------------------------|
- -1-1-1-1-1-1-1-1-1---1---11111---1~------------------------------|
- -2-2-2-2-2-2-2-2-2---2---22222---2~------------------------------|
PM .............................

----------------------------------------------------------------------------

[Riff 9] - [00:57] - [01:14-----------------------------------------| - [4x]
- ------------------------------------------------------------------|
- ------------------------------------------------------------------|
- ------------------------------------------------------------------|
- ------------------------------------------------------------------|
- -0-0-0-0-0-0-0-0-0-0----------------------------------------------|
- -0-0-0-0-0-0-0-0-0-0-----------------4---2---3---4---3---2---1----|
PM ...................

leave end out second time through.

----------------------------------------------------------------------------

[Riff 10] - [01:14] - [01:21]
- -----------------0~---------------|
- -----------------0~---------------|
- -----------------0~---------------|
- -0~----------------------////////-|
- -0~----------------------////////-|
- -0~----------------------////////-|

----------------------------------------------------------------------------

[Riff 11] - [01:21] - [01:46------------------------| - [4x]
- --------------------------------------------------|
- --------------------------------------------------|
- --------------------------------------------------|
- -------------------------------------5-8-7-5------|
- -5-----------5-8-7-5-------------------------8-7--|
- ---0-0-0-0-0---------8-7-5-5-5-5-5-5--------------|
PM   ...   ...               ...   ...

- -------------------------------------------------|
- -------------------------------------------------|
- -------------------------------------------------|
- -------------------------------------5-8-7-5-----|
- -5-----------5-8-7-5-----------5-7-8---------8-7-|
- ---0-0-0-0-0---------8-7-5-7-8-------------------|
PM   ...   ...

[Riff 12] - [01:33] - [01:40]
- ---------------------------------------------------------|
- ---------------------------------------------------------|
- ---------------------------------------------------------|
- -----------------------------------------8-12-10-8-------|
- -8-----------8-12-10-8-----------------------------12-10-|
- ---0-0-0-0-0-----------12-10-8-8-8-8-8-8-----------------|
PM   ...   ...                   ...   ...

- -------------------------------------------------------------|
- -------------------------------------------------------------|
- -------------------------------------------------------------|
- ---------------------------------------------8-12-10-8-------|
- -8-----------8-12-10-8---------------8-10-12-----------12-10-|
- ---0-0-0-0-0-----------12-10-8-10-12-------------------------|
PM   ...   ...

----------------------------------------------------------------------------

[Riff 13, Guitar 1 & 2] - [01:46] - [01:52]
- -----------------------------------------------------------------|
- -----------------------------------------------------------------|
- -----------------------------------------------------------------|
- ---------------------------------0~------------------------------|
- ---------------------------------0~---0000---00----000-----------|
- ---------------------------------0~---0000---00----000-----------|
PM                                      ................
-
- -----------------------------------------------------------------|
- -----------------------------------------------------------------|
- -----------------------------------------------------------------|
- -0~------------------------------0~------------------------------|
- -0~---0000---00----000---0-00-00-0~---0000---00----000-----------|
- -0~---0000---00----000---0-00-00-0~---0000---00----000-----------|
PM      ..........................      ................

[Riff 14, Guitar 1 & 2] - [01:52] - [02:05---------------------------| - [2x]
- -------------------------------------------------------------------|
- -------------------------------------------------------------------|
- -------------------------------------------------------------------|
- -0~------------------------------0~--------------------------5/7---|
- -0~---0000---00----000---0-00-00-0~---0000---00----000-----5-------|
- -0~---0000---00----000---0-00-00-0~---0000---00----000---3---------|
PM      ..........................      ....................
-
- ------------------------------------------------------------------|
- ------------------------------------------------------------------|
- ------------------------------------------------------------------|
- -0~------------------------------0~--------------------------8/10-|
- -0~---0000---00----000---0-00-00-0~---0000---00----000-----8------|
- -0~---0000---00----000---0-00-00-0~---0000---00----000---7--------|
PM      ..........................      ....................

----------------------------------------------------------------------------

[Riff 15, Guitar 1 & 2] - [02:05] - [02:46]
- ------------------------------------------------------------------|
- ------------------------------------------------------------------|
- -10101010101010----1010101010101012121212121414----14141414121210-|
- -x-x-x-x-x-x-x-----x-x-x-x-x-x-x-x-x-x-x-x-x-x-----x-x-x-x-x-x-x--|
- -8-8-8-8-8-8-8-----8-8-8-8-8-8-8-10101010101212----1212121210108--|
- ------------------------------------------------------------------|
-
- ------------------------------------------------------------------|
- ------------------------------------------------------------------|
- ------------------------------------------------------------------|
- -8-8-8-8-8-8-8-----8-8---8-8-8---0-0-0-0-0-0-0-----0-0---0-0-0----|
- -8-8-8-8-8-8-8-----8-8---8-8-8---0-0-0-0-0-0-0-----0-0---0-0-0----|
- -8-8-8-8-8-8-8-----8-8---8-8-8---0-0-0-0-0-0-0-----0-0---0-0-0----|


- ------------------------------------------------------------------|
- ------------------------------------------------------------------|
- -10101010101010----1010101010109-5-5-5-5-5-7-7-----7-7-7-7-9-9-10-|
- -x-x-x-x-x-x-x-----x-x-x-x-x-x-x-x-x-x-x-x-x-x-----x-x-x-x-x-x-x--|
- -8-8-8-8-8-8-8-----8-8-8-8-8-8-7-3-3-3-3-3-5-5-----5-5-5-5-7-7-8--|
- ------------------------------------------------------------------|
-
- ------------------------------------------------------------------|
- ------------------------------------------------------------------|
- ------------------------------------------------------------------|
- -8-8-8-8-8-8-8-----8-8---8-8-8---0-0-0-0-0-0-0-----0-0---0-0-0----|
- -8-8-8-8-8-8-8-----8-8---8-8-8---0-0-0-0-0-0-0-----0-0---0-0-0----|
- -8-8-8-8-8-8-8-----8-8---8-8-8---0-0-0-0-0-0-0-----0-0---0-0-0----|


- ------------------------------------------------------------------|
- ------------------------------------------------------------------|
- -10101010101010----1010101010101012121212121414----14141414121210-|
- -x-x-x-x-x-x-x-----x-x-x-x-x-x-x-x-x-x-x-x-x-x-----x-x-x-x-x-x-x--|
- -8-8-8-8-8-8-8-----8-8-8-8-8-8-8-10101010101212----1212121210108--|
- ------------------------------------------------------------------|
-
- ------------------------------------------------------------------|
- ------------------------------------------------------------------|
- ------------------------------------------------------------------|
- -8-8-8-8-8-8-8-----8-8---8-8-8---0-0-0-0-0-0-0-----0-0---0-0-0----|
- -8-8-8-8-8-8-8-----8-8---8-8-8---0-0-0-0-0-0-0-----0-0---0-0-0----|
- -8-8-8-8-8-8-8-----8-8---8-8-8---0-0-0-0-0-0-0-----0-0---0-0-0----|


- ------------------------------------------------------------------|
- ------------------------------------------------------------------|
- -10101010101010----1010101010109-5-5-5-5-5-7-7-----7-7-7-7-9-9-10-|
- -x-x-x-x-x-x-x-----x-x-x-x-x-x-x-x-x-x-x-x-x-x-----x-x-x-x-x-x-x--|
- -8-8-8-8-8-8-8-----8-8-8-8-8-8-7-3-3-3-3-3-5-5-----5-5-5-5-7-7-8--|
- ------------------------------------------------------------------|
-
- ------------------------------------------------------------------|
- ------------------------------------------------------------------|
- ------------------------------------------------------------------|
- -8-8-8-8-8-8-8-----8-8---8-8-8---0-0-0-0-0-0-0-----0-0---0-0-0----|
- -8-8-8-8-8-8-8-----8-8---8-8-8---0-0-0-0-0-0-0-----0-0---0-0-0----|
- -8-8-8-8-8-8-8-----8-8---8-8-8---0-0-0-0-0-0-0-----0-0---0-0-0----|


- ------------------------------------------------------------------|
- ------------------------------------------------------------------|
- -10101010101010----1010--10101010101212--121214----141414141212\--|
- -x-x-x-x-x-x-x-----x-x---x-x-x-x-x-x-x---x-x-x-----x-x-x-x-x-x----|
- -8-8-8-8-8-8-8-----8-8---8-8-8-8-8-1010--101012----121212121010\--|
- ------------------------------------------------------------------|
-
- ------------------------------------------------------------------|
- ------------------------------------------------------------------|
- ------------------------------------------------------------------|
- -8-8-8-8-8-8-8-----8-8---8-8-8---0-0-0-0-0-0-0-----0-0---0-0-0----|
- -8-8-8-8-8-8-8-----8-8---8-8-8---0-0-0-0-0-0-0-----0-0---0-0-0----|
- -8-8-8-8-8-8-8-----8-8---8-8-8---0-0-0-0-0-0-0-----0-0---0-0-0----|


- ------------------------------------------------------------------|
- ------------------------------------------------------------------|
- -10101010101010----101010101010105-5-5-5-5-7-7-----7-7-7-7-9-9-10-|
- -x-x-x-x-x-x-x-----x-x-x-x-x-x-x-x-x-x-x-x-x-x-----x-x-x-x-x-x-x--|
- -8-8-8-8-8-8-8-----8-8-8-8-8-8-8-3-3-3-3-3-5-5-----5-5-5-5-7-7-8--|
- ------------------------------------------------------------------|
-
- ------------------------------------------------------------------|
- ------------------------------------------------------------------|
- ------------------------------------------------------------------|
- -8-8-8-8-8-8-8-----8-8---8-8-8---0-0-0-0-0-0-0-----0-0---0-0-0----|
- -8-8-8-8-8-8-8-----8-8---8-8-8---0-0-0-0-0-0-0-----0-0---0-0-0----|
- -8-8-8-8-8-8-8-----8-8---8-8-8---0-0-0-0-0-0-0-----0-0---0-0-0----|


- ---------------------|
- ---------------------|
- -10~-------------\---|
- -x-------------------|
- -8~--------------\---|
- ---------------------|
-
- ---------------------|
- ---------------------|
- ---------------------|
- -8~--------------\---|
- -8~--------------\---|
- -8~--------------\---|

[Riff 16a] - [02:05] - [02:31-------------------| - [4x]
- -/13-12-10------------------------------------|
- -----------13-10------------------10----------|
- -----------------12-10----9-10-12----12-10-9--|
- ----------------------------------------------|
- ----------------------------------------------|
- ----------------------------------------------|

- ------12------12------12------12-13-12-10----|
- ------------------------------------------13-|
- -9h10----9h10----9h10----9h10----------------|
- ---------------------------------------------|
- ---------------------------------------------|
- ---------------------------------------------|

[Riff 16b] - [02:18] - [02:31---------------------| - [2x]
- -/17-15-13--------------------------------------|
- -----------17-15-13-------------13-15-13--------|
- --------------------14----12-14----------14-12--|
- ------------------------------------------------|
- ------------------------------------------------|
- ------------------------------------------------|

- -------15-------15-------15-------15-17-15-13----|
- ----------------------------------------------17-|
- -12h14----12h14----12h14----12h14----------------|
- -------------------------------------------------|
- -------------------------------------------------|
- -------------------------------------------------|

[Riff 16c] - [02:31] - [02:37]
- -15p13p10-15p13p10-15p13p10-15p13p10-15p13p10-15p13p10-15p13p10-15p13p10-|
- -------------------------------------------------------------------------|
- -------------------------------------------------------------------------|
- -------------------------------------------------------------------------|
- -------------------------------------------------------------------------|
- -------------------------------------------------------------------------|

- -15p13p10-15p13p10-15p13p10-15p13p10-17-15-------|
- -------------------------------------------18-17-|
- -------------------------------------------------|
- -------------------------------------------------|
- -------------------------------------------------|
- -------------------------------------------------|

- --------------------------------------|
- -17h18-15-------17-13----15-----------|
- ----------------------------14--------|
 ---------------------------------------|
- --------------------------------------|
- --------------------------------------|

[Riff 16d, Guitar 1 & 2] - [02:37] - [02:46]
- -20br----------17-20brbrbr-20br--17h18-|
- ---------------------------------------|
- ---------------------------------------|
- ---------------------------------------|
- ---------------------------------------|
- ---------------------------------------|


- -20p18p17--18p17-----17--------------------|
- ---------20-----20p18--20p18p17-18p17------|
- -------------------------------------19p17-|
- -------------------------------------------|
- -------------------------------------------|
- -------------------------------------------|
-
- -17p15-----15------------------------------|
- ------18p17--18p17p15-18p17p15--15---------|
- ------------------------------17--17p15p14-|
- -------------------------------------------|
- -------------------------------------------|
- -------------------------------------------|


- -----------------------------------------------------------------|
- -----------------------------------------------------------------|
- -19p17h19p17-17p15h17p15-15p14h15p14-14p12h14p12-14~---------\---|
- -----------------------------------------------------------------|
- -----------------------------------------------------------------|
- -----------------------------------------------------------------|
-
- -----------------------------------------------------------------|
- -----------------------------------------------------------------|
- -15p14h15p14-15p12h14p12-12p10h12p10--10p9h10p9--10~---------\---|
- -----------------------------------------------------------------|
- -----------------------------------------------------------------|
- -----------------------------------------------------------------|

----------------------------------------------------------------------------

[Riff 17, Guitar 1 & 2] - [02:46] - [02:54]
- -----------------------------------------------------------------|
- -----------------------------------------------------------------|
- -----------------------------6---7-------------------------------|
- -----------------------------x---x-------------------------------|
- -----------------------------4---5-------------------------------|
- -----------------------------------------------------------------|
-
- -----------------------------------------------------------------|
- -----------------------------------------------------------------|
- -6-----------6-------6-------6---7-------------------------------|
- -x-----------x-------x-------x---x-------------------------------|
- -4---000-000-4---000-4---000-4---5---000-000-000-000-000-000-000-|
- -----000-000-----000-----000---------000-000-000-000-000-000-000-|
PM     .......     ...     ...         ...........................


- -----------------------------------------------------------------|
- -----------------------------------------------------------------|
- -----------------------------------------------------------------|
- -5~--------------------------3---1-------------------------------|
- -5~--------------------------3---1-------------------------------|
- -5~--------------------------3---1-------------------------------|
-
- -----------------------------------------------------------------|
- -----------------------------------------------------------------|
- -----------------------------------------------------------------|
- -5-----------8---7---5---3---5---1-------------------------------|
- -5---555-555-8---7---5---3---5---1-------------------------------|
- -5---555-555-8---7---5---3---5---1-------------------------------|
PM     .......

----------------------------------------------------------------------------

[Riff 1 & 2] - [02:54] - [03:27] - [4x]

----------------------------------------------------------------------------

[Riff 18] - [03:27] - [03:31]
- ---------------------|
- ---------------------|
- ---------------------|
- -0~--------------0---|
- -0~--------------0---|
- -0~--------------0---|

----------------------------------------------------------------------------

[Symbols]

PM... Palm Mute notes with (...) under them
x     Dead Note
~     Let Ring
////  Pick Slide Up
h     Hammer On
p     Pull Off
b     Bend
r     Release
/     Slide Up
\     Slide Down

:)
comments
We did not receive enough feedback on this tab! Please rate:
print report bad tab
1 2 3 4 5
I want to post or [tab]
guest
You may want to rate the tab now too:
select rating
Please do not post tabs as comments. Select "correction" instead!