Oops, an error
Loading. Please wait.

Since The Beginning Tab

473 views 3 this week
no commentswrite comment
1 2 3 4 5
excellent!
x 1
add to favorites launch autoscroll
font size
0
reset
Autoscroll
+/-
esc
set tempo
stop
Contributor
Difficulty
Tuning
intermediate
B F# B E G# C#
WARNING: You are trying to view
                                    content from Ultimate-Guitar.com
                                    in an unauthorized application,
                                    which is prohibited.

                                    Please use an official Ultimate
                                    Guitar Tabs application for iPhone,
                                    iPad or Android to access legitimate
                                    chords, guitar, bass, and drum tabs
                                    from Ultimate-Guitar.com database.

                                    Type "ultimate guitar tabs" in Apple
                                    App Store's or Android Market's
                                    search to find the application.
[Since The Beginning]
[Nightmare On Providence St.]
[Blind Witness]

Tuning: BF#BEG#C# (Drop B / 1.5 Steps Down From Drop D)
joshuaoliveira@hotmail.com

[Riff 1] - [00:00] - [00:07]
- ------------------------------------------------------------------|
- ------------------------------------------------------------------|
- ------------------------------------------------------------------|
- -------------------------------------------------\\\\\\\\\\\\\\\\-|
- -0-0---------------------0---0---0-0-------------\\\\\\\\\\\\\\\\-|
- -0-0---------------------0---0---0-0-------------\\\\\\\\\\\\\\\\-|
PM ...................................

- ---------------------------------|
- ---------------------------------|
- ---------------------------------|
- -8~--------------5-----7---5---3-|
- -8~--------------5-----7---5---3-|
- -8~--------------5-----7---5---3-|

[Riff 2] - [00:00] - [00:21-----------------------------------------| - [3x]
- ------------------------------------------------------------------|
- ------------------------------------------------------------------|
- ------------------------------------------------------------------|
- -------------------5-------------------------------7--------------|
- -----0h5---7---8-----8---7h8p7p5-----0h5---7---8-----8---7h8p7p5--|
- -0-0-----0---0---0-----0---------0-0-----0---0---0-----0----------|
PM ...     .   .   .     .         ...     .   .   .     .

- ---------------------------------------|
- -------------------8h10p8--------------|
- ------------9-------------9h10p9-------|
- -----7h8h10---10p7---------------10/12-|
- ---8-----------------------------------|
- -8-------------------------------------|
PM ...

[Riff 3] - [00:07] - [00:21-----------------------------------------| - [2x]
- ------------------------------------------------------------------|
- ------------------------------------------------------------------|
- ------------------------------------------------------------------|
- -------------------5-------------------------------7--------------|
- -----0h5---7---8-----8---7h8p7p5-----0h5---7---8-----8---7h8p7p5--|
- -0-0-----0---0---0-----0---------0-0-----0---0---0-----0----------|
PM ...     .   .   .     .         ...     .   .   .     .

- ------------------------------------|
- ------------------------------------|
- ------------------------------------|
- ----------7h10p7----5-----7---5---3-|
- ---7h8h10--------10-5-----7---5---3-|
- -8------------------5-----7---5---3-|
PM .

----------------------------------------------------------------------------

[Riff 4] - [00:21] - [00:39-----------------------------------------| - [2x]
- ------------------------------------------------------------------|
- ------------------------------------------------------------------|
- ---------------------------------------------------5--------------|
- -----------5---7---8p7---5h7p5-------------5---7-----7---5h7p5----|
- -----0h8-----------------------8-----0h8-----------------------7--|
- -0-0-----0---0---0-----0---------0-0-----0---0---0-----0----------|
PM ...     .   .   .     .         ...     .   .   .     .

- -------------------------------------------------------------------------|
- -------------------------------------------------------------------------|
- -------------------------------------------------------------------------|
- -----------5---7---8p7---5h7p5-------------------------------------------|
- -----0h8-----------------------8-----8---8---8-8-------12----12-12-12-12-|
- -5-5-----5---5---5-----5---------8-8---8---8-----10-10----10-------------|
PM ...     .   .   .     .         ...   .   .     .....    ..

[Riff 5] - [00:21] - [00:39-----------------------------------------| - [2x]
- ------------------------------------------------------------------|
- ------------------------------------------------------------------|
- ------------------------------------------------------------------|
- -------------------5-------------------------------7--------------|
- -----0h5---7---8-----8---7h8p7p5-----0h5---7---8-----8---7h8p7p5--|
- -0-0-----0---0---0-----0---------0-0-----0---0---0-----0----------|
PM ...     .   .   .     .         ...     .   .   .     .

- --------------------------------------------------------------------|
- --------------------------------------------------------------------|
- --------------------------------------------------------------------|
- -------------------5------------------------------------------------|
- -----0h5---7---8-----8---7h8p7p5-----5---5---5-5-------8----8-8-8-8-|
- -5-5-----5---5---5-----5---------8-8---8---8-----10-10---10---------|
PM ...     .   .   .     .         ...   .   .     .....   ..

----------------------------------------------------------------------------

[Riff 6] - [00:39] - [00:42]
- ---------------------------------|
- ---------------------------------|
- ---------------------------------|
- -12\-----------------------------|
- -12\-----------------------------|
- -12\-----------------------------|

----------------------------------------------------------------------------

[Riff 7] - [00:42] - [01:00-----------------------------------------| - [2x]
- ------------------------------------------------------------------|
- ------------------------------------------------------------------|
- ------------------------------------------------------------------|
- -----5---5h7---7---5h7---8p7p5-------5---5h7---7---5h7---------5--|
- -------------------------------8-----------------------4/5h7h8----|
- -0-0---0-----0---0-----0---------0-0---0-----0---0----------------|
PM ...   .     .   .     .         ...   .     .   .

- -----------------------------------------------------------------|
- -----------------------------------------------------------------|
- -----------------------------------------------------------------|
- -----5---5h7---7---5h7---8p7p5-------------------5h7h8p7p5-------|
- -------------------------------8-4h5p4h5-7h8p7h8-----------8p7p4-|
- -0-0---0-----0---0-----0-----------------------------------------|
PM ...   .     .   .     .

[Riff 8] - [00:50] - [01:00]
- -----------------------------------------------------------------|
- -----------------------------------------------------------------|
- -----------------------------------------------------------------|
- -----2---2h3---3---2h3---5p3p2-------2---2h3---3---2h3---------2-|
- -------------------------------3-----------------------0h1h3h5---|
- -0-0---0-----0---0-----0---------0-0---0-----0---0---------------|
PM ...   .     .   .     .         ...   .     .   .

- -----------------------------------------------------------------|
- -----------------------------------------------------------------|
- -----------------------------------------------------------------|
- -----2---2h3---3---2h3---5p3p2-------------------2h3h5p3p2-------|
- -------------------------------3-0h1p0h1-3h5p3h5-----------5p3p0-|
- -0-0---0-----0---0-----0-----------------------------------------|
PM ...   .     .   .     .

----------------------------------------------------------------------------

[Riff 9] - [01:00] - [01:18]
- -----------------------------------------------------------------|
- -----------------------------------------------------------------|
- -----------------------------------------------------------------|
- -------5---------7---8-7-5-----------------------------------5---|
- -5-7-8---8-7-5-3-------------8-7-5---7-8-7---5-4-5---7---8-------|
- -----------------------------------------------------------------|
AP ...............................................................

- ---------------------------------------------------|
- -----------------------------------13------13------|
- -----------------7---9---10---9h10----9h10----9h10-|
- -8---7---------------------------------------------|
- ---------7---8-------------------------------------|
- ---------------------------------------------------|
AP ............................

[Riff 10] - [01:00] - [01:18]
- -----------------------------------------------------------------|
- -----------------------------------------------------------------|
- -----------------------------------------------------------------|
- -------5---------7---8-7-5-----------------------------------5---|
- -5-7-8---8-7-5-3-------------8-7-5---7-8-7---5-4-5---7---8-------|
- -----------------------------------------------------------------|
AP ...............................................................

- ---------------------------------------------------------------|
- ---------------------------------------------------------------|
- ---------------------------------------------------------------|
- -------5---------7---8-7-5-----------------------10-----10-----|
- -5-7-8---8-7-5-3-------------8-7-5---7---8---7h8----7h8----7h8-|
- ---------------------------------------------------------------|
AP ...........................................

----------------------------------------------------------------------------

[Riff 11] - [01:18] - [01:33---------------------------------------------| - [2x]
- -----------------------------------------------------------------------|
- -------------------------------------------------------------8h10------|
- -----------------------------------------------------------------9h10--|
- -----------------------------------------------------------------------|
- -00--000000-0-00-0-0000-0-00-000000--000000-0-00-0-0000-0-00-----------|
- -00--000000-0-00-0-0000-0-00-000000--000000-0-00-0-0000-0-00-----------|
PM ...........................................................

[Riff 12] - [01:18] - [01:33--------------------------------------------| - [2x]
- ----------------------------------------------------------------------|
- -------------------------------------------------------------5h6------|
- -----------------------------------------------------------------5h7--|
- ----------------------------------------------------------------------|
- -00--000000-0-00-0-0000-0-00-000000--000000-0-00-0-0000-0-00----------|
- -00--000000-0-00-0-0000-0-00-000000--000000-0-00-0-0000-0-00----------|
PM ...........................................................

[Riff 13] - [01:33] - [01:40-----------------------------------------| - [2x]
- -------------------------------------------------------------------|
- -------------------------------------------------------------------|
- -------------------------------------------------------------------|
- -------------------------------------------------------------------|
- -00--000000-0-00-0-0000-0-00-000000--000000-0-00-0-0000-0-00-0000--|
- -00--000000-0-00-0-0000-0-00-000000--000000-0-00-0-0000-0-00-0000--|
PM ................................................................

[Riff 14] - [01:33] - [01:36-| - [4x]
- -5h6-----------------------|
- -----5h6-------------------|
- ---------5h7---------------|
- -------------5h7-----------|
- ---------------------------|
- ---------------------------|

----------------------------------------------------------------------------

[Riff 1 & 2] - [01:36] - [01:47]
[Riff 2 & 3] - [01:47] - [01:54]
[Riff 5] - [01:54] - [02:12]

[Riff 15] - [01:54] - [02:12----------------------------------------| - [2x]
- ------------------------------------------------------------------|
- ------------------------------------------------------------------|
- ------------------------------------------------------------------|
- ------------------------------------------------------------------|
- -0-0-----------000-0-0-0-0-0-0-0-0-0---------------1---1---1---1--|
- -0-0-----------000-0-0-0-0-0-0-0-0-0---------------2---2---2---2--|
PM ...............................................................

- ------------------------------------------------------------------|
- ------------------------------------------------------------------|
- ------------------------------------------------------------------|
- ------------------------------------------------------------------|
- -5-5-----------555-5-5-5-5-5-5-5-----5---5---5-5-----8----8-8-8-8-|
- -5-5-----------555-5-5-5-5-5-5-5-8-8---8---8-----1010--10---------|
PM ...................................   .   .     ....  ..

----------------------------------------------------------------------------

[Riff 16] - [01:12] - [02:14]
- ---------------------------------|
- ---------------------------------|
- ---------------------------------|
- -0~------------------------------|
- -0~--------------0---------------|
- -0~--------------0---------------|
PM                 .

----------------------------------------------------------------------------

[Riff 17] - [02:14] - [02:33----------------| - [4x]
- ------------------------------------------|
- ------------------------------------------|
- ------------------------------------------|
- -----5h7h8---------------------3h5p3------|
- -000-------5h7h8-000-000-4h5h7-------4----|
- -000-------------000-000------------------|
PM ...             .......

- -------------------------------------|
- -------------------------------------|
- -------------------------------------|
- -----5h7h8---------------------------|
- -000-------5h7h8-555-777-888-555-333-|
- -000-------------555-777-888-555-333-|
PM ...             ...................

[Riff 18] - [02:23] - [02:33----------------------------------------| - [2x]
- ------------------------------------------------------------------|
- ------------------------------------------------------------------|
- ------------------------------------------------------------------|
- ------------------------------------------------------------------|
- -000---------000-000-------------000---------555-777-888-555-333--|
- -000---------000-000-------------000---------555-777-888-555-333--|
PM ...............................................................

[Riff 19] - [02:33] - [02:34]
- ---------|
- ---------|
- ---------|
- ---------|
- -222-333-|
- -222-333-|
PM .......

----------------------------------------------------------------------------

[Riff 20] - [02:34] - [02:48----------------------------------------| - [2x]
- ------------------------------------------------------------------|
- ------------------------------------------------------------------|
- ------------------------------------------------------------------|
- ------------------------------------------------------------------|
- -0-0-0-0-------------00000---0---0-0-0-0-------------1-1---1-1----|
- -0-0-0-0-------------00000---0---0-0-0-0-------------2-2---2-2----|
PM .............................................................

- -----------------------------------------------------------------|
- -----------------------------------------------------------------|
- -----------------------------------------------------------------|
- -----------------------------------------------------------------|
- -0-0-0-0-------------00000---0-----------------------------------|
- -0-0-0-0-------------00000---0---3b--0-3b--0-3b--3b--0-3b--0-3b--|
PM .............................

[Riff 21] - [02:34] - [02:48----------------------------------------| - [2x]
- ------------------------------------------------------------------|
- ------------------------------------------------------------------|
- ------------------------------------------------------------------|
- ------------------------------------------------------------------|
- -0-0-0-0-------------00000---0---0-0-0-0-------------1-1---1-1----|
- -0-0-0-0-------------00000---0---0-0-0-0-------------2-2---2-2----|
PM .............................................................

- -----------------------------------------------------------------|
- -----------------------------------------------------------------|
- -----------------------------------------------------------------|
- -----------------------------------------------------------------|
- -0-0-0-0-------------00000---0-----------------------------------|
- -0-0-0-0-------------00000---0---6b--0-6b--0-6b--6b--0-6b--0-6b--|
PM .............................

----------------------------------------------------------------------------

[Riff 22] - [02:48] - [03:03]
- ------------------------------------------------------------------|
- ------------------------------------------------------------------|
- ------------------------------------------------------------------|
- -0~------------------------------8---8---8---8---1010101010101010-|
- -0~------------------------------8---8---8---8---1010101010101010-|
- -0~------------------------------8---8---8---8---1010101010101010-|

- -----------------------------------------------------------------|
- -----------------------------------------------------------------|
- -----------------------------------------------------------------|
- -0~--------------3~--------------8~--------------10~-------------|
- -0~--------------3~--------------8~--------------10~-------------|
- -0~--------------3~--------------8~--------------10~-------------|

[Riff 14] - [02:48] - [03:03]

[Riff 23] - [02:58] - [03:03] - [12-|x]
- -8h10-----------------------------|
- ------8h10------------------------|
- -----------9h10-------------------|
- ----------------10h12-------------|
- ----------------------------------|
- ----------------------------------|

----------------------------------------------------------------------------

[Riff 16] - [03:03] - [03:05]
[Riff 11 & 12] - [03:05] - [03:19]
[Riff 13 & 14] - [03:19] - [03:27]
[Riff 1 & 2] - [03:27] - [03:34]

[Riff 24] - [03:34] - [03:37]
- ---------------------------------|
- ---------------------------------|
- ---------------------------------|
- -12--------------\---------------|
- -12--------------\---------------|
- -12--------------\---------------|

----------------------------------------------------------------------------

[Symbols]

PM... Palm Mute notes with (...) under them
\\\\  Pick Slide down
h     Hammer On
p     Pull Off
AP... Alternate Pick notes with (...) under them
/     Slide Up
\     Slide Down
b     Bend
~     Let Ring

:)
comments
We did not receive enough feedback on this tab! Please rate:
print report bad tab
1 2 3 4 5
I want to post or [tab]
guest
You may want to rate the tab now too:
select rating
Please do not post tabs as comments. Select "correction" instead!