Oops, an error
Loading. Please wait.

All Of Us Tab

ver2
ver2

Intro

Whole song

More versions @911Tabs.com
1,402 views 1 this week
1 commentread comment
1 2 3 4 5
worth learning
x 5
Autoscroll
+/-
esc
set tempo
stop
Contributor
WARNING: You are trying to view
                                    content from Ultimate-Guitar.com
                                    in an unauthorized application,
                                    which is prohibited.

                                    Please use an official Ultimate
                                    Guitar Tabs application for iPhone,
                                    iPad or Android to access legitimate
                                    chords, guitar, bass, and drum tabs
                                    from Ultimate-Guitar.com database.

                                    Type "ultimate guitar tabs" in Apple
                                    App Store's or Android Market's
                                    search to find the application.
All of Us
Blindside
About a Burning Fire

E|-------------------------------------------------------------------|
B|-------------------------------------------------------------------|
G|--------------------------------------------------------7-7-7-7----|
D|-7-7-7-7-7-7-7-7-7-7-7-7-7-7-7-7-5-5-5-5~-5-5-5-8-8-8-8------------|
A|-------------------------------------------------------------------|
D|-------------------------------------------------------------------|

E|-------------------------------------------------------------------|
B|-------------------6---6-------------------------------------------|
G|---------------------------------------------------------7-10-11~--|
D|-7-7-7-7-7-7-7-7-7---7---7-7-7-7-5-5-5-5-5-5-5-5-8-8-8-8-----------|
A|-------------------------------------------------------------------|
D|-------------------------------------------------------------------|

E|-------------------------------------------------------------------|
B|-----------------------------------------------------6-------------|
G|---------------------------------------------------------7-7-7-7---|
D|-7-7-7-7-7-7-7-7-7-7-7-7-7-7-7-7-5-5-5-5-5-5-5-5-8-8---8-----------|
A|---------------0-0-------------------------------------------------|
D|---------------0-0-------------------------------------------------|

E|-------------------------------------------------------------------|
B|-------------------------------------------------------------------|
G|-------------------------------------------------------7-7-7-7-7---|
D|-7-7-7-7-7-7-7-7-7-7-7-7-7-7-7-7-5-5-5-5-5-5-5-5-8-8-8-0-0-0-0-0---|
A|-------------------------------------------------------0-0-0-0-0---|
D|-------------------------------------------------------0-0-0-0-0---|

E|-------------------------------------------------------------------|
B|-------------------------------------------------------6--------10-|
G|------------------------------------------------------------7-7----|
D|-7-7-7-7-7-7-7-7-7-7-7-7-7-7-7-7-5-5-5-5-5-5-5-5-8-8-8---8---------|
A|-------------------------------------------------------------------|
D|-------------------------------------------------------------------|

E|-------------------------------------------------------------------|
B|-------------------------------------------------------------10-11-|
G|10-10-10-10-10-10-10-10-10-10-10-10-5-6-7-8-------------------x--x-|
D|-x--x--x--x--x--x--x--x--x--x--x--x-x-x-x-x--8-8-8-8-8-8-8-8--7--8-|
A|-8--8--8--8--8--8--8--8--8--8--8--8-3-4-5-6--8-8-8-8-8-8-8-8--7--8-|
D|---------------------------------------------8-8-8-8-8-8-8-8--7--8-|

E|-------------------------------------------------------------------|
B|-13-11-8-10-------------------------------------------------10-11--|
G|--x--x-x--x---10-10-10-10-10-10-10-10-13~~~------------------x--x--|
D|-10--8-x--x----x--x--x--x--x--x--x--x-------7-7-7-7-7-7-7-7--7--8--|
A|-10--8-x--x----8--8--8--8--8--8--8--8-------7-7-7-7-7-7-7-7--7--8--|
D|-10--8-5--7-0-------------------------------7-7-7-7-7-7-7-7--7--8--|

E|-------------------------------------------------------------------|
B|-13-11-8-10--------------------------------------------------------|
G|--x--x-x--x---10-10-10-10-10-10-10-10-10-10-10-10-10-9-7-5---------|
D|-10--8-x--x----x--x--x--x--x--x--x--x--x--x--x--x--x-x-x-x--8-8-8--|
A|-10--8-x--x----8--8--8--8--8--8--8--8--8--8--8--8--8-7-5-3--8-8-8--|
D|-10--8-5--7-0-----------------------------------------------8-8-8--|

E|-----------------------------------------------------------|
B|----------10-11-13-11-8-10---------------------------------|
G|-----------x--x--x--x-x--x---10-10-10-10-10-10-10-10-13~~~-|
D|8-8-8-8-8--7--8-10--8-x--x----x--x--x--x--x--x--x--x-------|
A|8-8-8-8-8--7--8-10--8-x--x----8--8--8--8--8--8--8--8-------|
D|8-8-8-8-8--7--8-10--8-5--7-0-------------------------------|

E|-------------------------------------------------------------------|
B|-------------------------------------------------------------------|
G|--------------------------------------------------------7-7-7-7----|
D|-7-7-7-7-7-7-7-7-7-7-7-7-7-7-7-7-5-5-5-5~-5-5-5-8-8-8-8------------|
A|-------------------------------------------------------------------|
D|-------------------------------------------------------------------|

E|-------------------------------------------------------------------|
B|-----------------------6-------------------------------------------|
G|---------------------------------------------------------7-10-11~--|
D|-7-7-7-7-7-7-7-7-7-7-7---7-7-7-7-5-5-5-5-5-5-5-5-8-8-8-8-----------|
A|-------------------------------------------------------------------|
D|-------------------------------------------------------------------|

E|-------------------------------------------------------------------|
B|-------------------------------------------------------------------|
G|-------------------------------------------------------7-7-7-7-7---|
D|-7-7-7-7-7-7-7-7-7-7-7-7-7-7-7-7-5-5-5-5-5-5-5-5-8-8-8-0-0-0-0-0---|
A|-----------------0-0-----------------------------------0-0-0-0-0---|
D|-----------------0-0-----------------------------------0-0-0-0-0---|

E|-------------------------------------------------------------------|
B|-------------------------------------------------------------10-11-|
G|10-10-10-10-10-10-10-10-10-10-10-10-5-6-7-8-------------------x--x-|
D|-x--x--x--x--x--x--x--x--x--x--x--x-x-x-x-x--8-8-8-8-8-8-8-8--7--8-|
A|-8--8--8--8--8--8--8--8--8--8--8--8-3-4-5-6--8-8-8-8-8-8-8-8--7--8-|
D|---------------------------------------------8-8-8-8-8-8-8-8--7--8-|

E|-------------------------------------------------------------------|
B|13-11-8-10-------------------------------------------------10-11---|
G|-x--x-x--x---10-10-10-10-10-10-10-10-13~~~------------------x--x---|
D|10--8-x--x----x--x--x--x--x--x--x--x-------7-7-7-7-7-7-7-7--7--8---|
A|10--8-x--x----8--8--8--8--8--8--8--8-------7-7-7-7-7-7-7-7--7--8---|
D|10--8-5--7-0-------------------------------7-7-7-7-7-7-7-7--7--8---|

E|-------------------------------------------------------------------|
B|13-11-8-10---------------------------------------------------------|
G|-x--x-x--x---10-10-10-10-10-10-10-10-10-10-10-10-10-9-7-5----------|
D|10--8-x--x----x--x--x--x--x--x--x--x--x--x--x--x--x-x-x-x--8-8-8-8-|
A|10--8-x--x----8--8--8--8--8--8--8--8--8--8--8--8--8-7-5-3--8-8-8-8-|
D|10--8-5--7-0-----------------------------------------------8-8-8-8-|

E|-------------------------------------------------------------------|
B|--------10-11-13-11-8-10-------------------------------------------|
G|---------x--x--x--x-x--x----10-10-10-10-10-10-10-10-12/13~13~13~/--|
D|8-8-8-8--7--8-10--8-x--x-----x--x--x--x--x--x--x--x----------------|
A|8-8-8-8--7--8-10--8-x--x-----8--8--8--8--8--8--8--8----------------|
D|8-8-8-8--7--8-10--8-5--7-0-----------------------------------------|

E|-------------------------------------------------------------------|
B|-------------------------------------------------------------------|
G|-------------------------------------------------------------------|
D|-10-10-10-10-10-10-10-10-10-10-10-10-10-10-10-10--9-9-9-9-9-9-9-9--|
A|-------------------------------------------------------------------|
D|-------------------------------------------------------------------|

E|--------------------------------------------------------------------|
B|--------------------------------------------------------------------|
G|8-8-8-8-------------------------------------------------------------|
D|--------7--10-10-10-10-10-10-10-10-10-10-10-10-10-10-10-10-10-10-10-|
A|--------------------------------------------------------------------|
D|--------------------------------------------------------------------|

E|----------------------------13-|
B|--------------11~~11-11-14~~-x-|
G|-----------------------------x-|
D|10/9-9-9---------------------x-|
A|-----------------------------x-|
D|----------3~~----------------x-|

E|-------------------------------------------------------------------|
B|-------------------------------------------------------------10-11-|
G|10-10-10-10-10-10-10-10-10-10-10-10-5-6-7-8-------------------x--x-|
D|-x--x--x--x--x--x--x--x--x--x--x--x-x-x-x-x--8-8-8-8-8-8-8-8--7--8-|
A|-8--8--8--8--8--8--8--8--8--8--8--8-3-4-5-6--8-8-8-8-8-8-8-8--7--8-|
D|---------------------------------------------8-8-8-8-8-8-8-8--7--8-|

E|-------------------------------------------------------------------|
B|13-11-8-10---------------------------------------------------------|
G|-x--x-x--x---10-10-10-10-10-10-10-10-11~12~12~12~/11---------------|
D|10--8-x--x----x--x--x--x--x--x--x--x-----------------7-7-7-7-7-7-7-|
A|10--8-x--x----8--8--8--8--8--8--8--8-----------------7-7-7-7-7-7-7-|
D|10--8-5--7-0-----------------------------------------7-7-7-7-7-7-7-|

E|-------------------------------------------------------------------|
B|--10-11-13-11-8-10-------------------------------------------------|
G|---x--x--x--x-x--x---10-10-10-10-10-10-10-10-10-10-10-10-10-9-7-5--|
D|7--7--8-10--8-x--x----x--x--x--x--x--x--x--x--x--x--x--x--x-x-x-x--|
A|7--7--8-10--8-x--x----8--8--8--8--8--8--8--8--8--8--8--8--8-7-5-3--|
D|7--7--8-10--8-5--7-0-----------------------------------------------|

E|-------------------------------------------------------------------|
B|-----------------10-11-13-11-8-10----------------------------------|
G|------------------x--x--x--x-x--x---10-10-10-10-10-10-10-10-13~~~--|
D|-8-8-8-8-8-8-8-8--7--8-10--8-x--x----x--x--x--x--x--x--x--x--------|
A|-8-8-8-8-8-8-8-8--7--8-10--8-x--x----8--8--8--8--8--8--8--8--------|
D|-8-8-8-8-8-8-8-8--7--8-10--8-5--7-0--------------------------------|
1 comment total.
0 reply
365_days_gone wrote on September 28 2009, 11:18 pm

Chorus is terribl7y inaccurate, so are the notes in the bridge!!!

I want to post or [tab]
guest
You may want to rate the tab now too:
select rating
Please do not post tabs as comments. Select "correction" instead!