Oops, an error
Loading. Please wait.

When I Remember Tab

ver1
ver1

Solo

Whole song

More versions @911Tabs.com
1,889 views 1 this week
1 commentread comment
1 2 3 4 5
accurate
x 3
Autoscroll
+/-
esc
set tempo
stop
Contributor
Tuning
D A D G B E
Hey! There's an official Ultimate Guitar app which is ideal
for learning songs when you're away from computer. Get the app
WARNING: You are trying to view
                                    content from Ultimate-Guitar.com
                                    in an unauthorized application,
                                    which is prohibited.

                                    Please use an official Ultimate
                                    Guitar Tabs application for iPhone,
                                    iPad or Android to access legitimate
                                    chords, guitar, bass, and drum tabs
                                    from Ultimate-Guitar.com database.

                                    Type "ultimate guitar tabs" in Apple
                                    App Store's or Android Market's
                                    search to find the application.
When I Remember by Blindside

DROP D TUNING (D A D G B E)

x = muted
r = rest
\ = slide up


Verse/Intro

e|-----------------------------------------------------------------------------------|
B|-----------------------------------------------------------------------------------|
G|-----------------------------------------------------------------------------------|
D|----3--3--3--3-3-3-4--4--4-x---6--6--6--6-6--8-9-9-9-6--8-3--3--3--3-3-4--4--4--4-x|
A|----1--1--1--1-1-1-1--2--2-x---6--6--6--6-6--6-6-6-6-6--6-1--1--1--1-1-1--2--2--2-x|
D|---------------------------x---6--6--6--6-6---------------------------------------x|


e|-----------------------------------------------------------------------------------|
B|-----------------------------------------------------------------------------------|
G|-----------------------------------------------------------------------------------|
D|----6--6--6--6-6--1--1--1--x--3--3--3--3-3-3-4--4--4-x---6--6--6--6-6--8-9-9-9-6--8|
A|----6--6--6--6-6--1--1--1--x--1--1--1--1-1-1-1--2--2-x---6--6--6--6-6--6-6-6-6-6--6|
D|----6--6--6--6-6--1--1--1--x-------------------------x---6--6--6--6-6--------------|


e|-----------------------------------------------------------------------------------|
B|-----------------------------------------------------------------------------------|
G|---------------------------------------------------------8-8-8-8-8-8-8-------------|
D|----3--3--3--3-3-3-4--4--4-x---6--6--6--6-6--1--1--1--1--x-x-x-x-x-x-x-------------|
A|----1--1--1--1-1-1-1--2--2-x---6--6--6--6-6--1--1--1--1--6-6-6-6-6-6-6-------------|
D|---------------------------x---6--6--6--6-6--1--1--1--1----------------------------|
                                                           ^build up^

Chorus


e|-----------------------------------------------------------------------------------|
B|-----------------------------------------------------------------------------------|
G|----11-11-11-11-11-11-11-10-10-10-10-10-10-10-10-6-6-6-6-6-6-6---------------------|
D|----x--x--x--x--x--x--x--x--x--x--x--x--x--x--x--x-x-x-x-x-x-x--6-6-6-6-6-6-6-6----|
A|----9--9--9--9--9--9--9--9--9--9--9--9--9--9--9--4-4-4-4-4-4-4--6-6-6-6-6-6-6-6----|
D|----------------------------------------------------------------6-6-6-6-6-6-6-6----|

Verse


e|-----------------------------------------------------------------------------------|
B|-----------------------------------------------------------------------------------|
G|-----------------------------------------------------------------------------------|
D|----3--3--3--3-3-3-4--4--4-x---6--6--6--6-6--8-9-9-9-6--8-3--3--3--3-3-4--4--4--4-x|
A|----1--1--1--1-1-1-1--2--2-x---6--6--6--6-6--6-6-6-6-6--6-1--1--1--1-1-1--2--2--2-x|
D|---------------------------x---6--6--6--6-6---------------------------------------x|


e|-----------------------------------------------------------------------------------|
B|-----------------------------------------------------------------------------------|
G|-----------------------------------------------------------------------------------|
D|----6--6--6--6-6--1--1--1--x--3--3--3--3-3-3-4--4--4-x---6--6--6--6-6--8-9-9-9-6--8|
A|----6--6--6--6-6--1--1--1--x--1--1--1--1-1-1-1--2--2-x---6--6--6--6-6--6-6-6-6-6--6|
D|----6--6--6--6-6--1--1--1--x-------------------------x---6--6--6--6-6--------------|


e|-----------------------------------------------------------------------------------|
B|-----------------------------------------------------------------------------------|
G|---------------------------------------------------------8-8-8-8-8-8-8-------------|
D|----3--3--3--3-3-3-4--4--4-x---6--6--6--6-6--1--1--1--1--x-x-x-x-x-x-x-------------|
A|----1--1--1--1-1-1-1--2--2-x---6--6--6--6-6--1--1--1--1--6-6-6-6-6-6-6-------------|
D|---------------------------x---6--6--6--6-6--1--1--1--1----------------------------|
                                                           ^build up^

Chorus


e|-----------------------------------------------------------------------------------|
B|-----------------------------------------------------------------------------------|
G|----11-11-11-11-11-11-11-10-10-10-10-10-10-10-10-6-6-6-6-6-6-6---------------------|
D|----x--x--x--x--x--x--x--x--x--x--x--x--x--x--x--x-x-x-x-x-x-x--6-6-6-6-6-6-6-6----|
A|----9--9--9--9--9--9--9--9--9--9--9--9--9--9--9--4-4-4-4-4-4-4--6-6-6-6-6-6-6-6----|
D|----------------------------------------------------------------6-6-6-6-6-6-6-6----|


e|-----------------------------------------------------------------------------------|
B|-----------------------------------------------------------------------------------|
G|----11-11-11-11-11-11-11-10-10-10-10-10-10-10-10-6-6-6-6-6-6-6---------------------|
D|----x--x--x--x--x--x--x--x--x--x--x--x--x--x--x--x-x-x-x-x-x-x--6-6-6-6-6-6-4-4----|
A|----9--9--9--9--9--9--9--9--9--9--9--9--9--9--9--4-4-4-4-4-4-4--6-6-6-6-6-6-4-4----|
D|----------------------------------------------------------------6-6-6-6-6-6-4-4----|


e|-----------------------------------------------------------------------------------|
B|-----------------------------------------------------------------------------------|
G|----11-11-11-11-11-11-11-10-10-10-10-10-10-10-10-6-6-6-6-6-6-6---------------------|
D|----x--x--x--x--x--x--x--x--x--x--x--x--x--x--x--x-x-x-x-x-x-x--6-6-6-6-6-6-6-6----|
A|----9--9--9--9--9--9--9--9--9--9--9--9--9--9--9--4-4-4-4-4-4-4--6-6-6-6-6-6-6-6----|
D|----------------------------------------------------------------6-6-6-6-6-6-6-6----|


e|-----------------------------------------------------------------------------------|
B|-----------------------------------------------------------------------------------|
G|----11-11-11-11-11-11-11-10-10-10-10-10-10-10-10-6-6-6-6-6-6-6---------------------|
D|----x--x--x--x--x--x--x--x--x--x--x--x--x--x--x--x-x-x-x-x-x-x--6-6-6-6-6-6-4-4----|
A|----9--9--9--9--9--9--9--9--9--9--9--9--9--9--9--4-4-4-4-4-4-4--6-6-6-6-6-6-4-4----|
D|----------------------------------------------------------------6-6-6-6-6-6-4-4----|


Bridge


e|--------------------------------------------11-11-14-14-11-11----------------------|
B|--------------------------------------------11-11-14-14-11-11----------------------|
G|----3--3--3-3-4--3--1--3-x-6--6--6-4-3---------------------------------------------|
D|-----------------------------------------------------------------------------------|
A|-----------------------------------------------------------------------------------|
D|-----------------------------------------------------------------------------------|


e|--------------------------------------------11-11-14-14-11-11----------------------|
B|--------------------------------------------11-11-14-14-11-11----------------------|
G|----3--3--3-3-4--3--1--3-x-6--6--6-4-3---------------------------------------------|
D|-----------------------------------------------------------------------------------|
A|-----------------------------------------------------------------------------------|
D|-----------------------------------------------------------------------------------|


e|--------------------------------------------11-11-14-14-11-11----------------------|
B|--------------------------------------------11-11-14-14-11-11----------------------|
G|----3--3--3-3-4--3--1--3-x-6--6--6-4-3---------------------------------------------|
D|-----------------------------------------------------------------------------------|
A|-----------------------------------------------------------------------------------|
D|-----------------------------------------------------------------------------------|


e|--------------------------------------------11-11-14-14-11-11----------------------|
B|--------------------------------------------11-11-14-14-11-11----------------------|
G|----3--3--3-3-4--3--1--3-x-6--6--6-4-3---------------------------------------------|
D|-----------------------------------------------------------------------------------|
A|-----------------------------------------------------------------------------------|
D|-----------------------------------------------------------------------------------|


e|-----------------------------------------------------------------------------------|
B|-----------------------------------------------------------------------------------|
G|----8-8-8-8-8-8-8r----8-8-8-8-8-8-8------------------------------------------------|
D|----x-x-x-x-x-x-xr----x-x-x-x-x-x-x------------------------------------------------|
A|----6-6-6-6-6-6-6r----6-6-6-6-6-6-6------------------------------------------------|
D|-----------------------------------------------------------------------------------|
      ^build up^        ^build up^

Chorus


e|-----------------------------------------------------------------------------------|
B|-----------------------------------------------------------------------------------|
G|----11-11-11-11-11-11-11-10-10-10-10-10-10-10-10-6-6-6-6-6-6-6---------------------|
D|----x--x--x--x--x--x--x--x--x--x--x--x--x--x--x--x-x-x-x-x-x-x--6-6-6-6-6-6-6-6----|
A|----9--9--9--9--9--9--9--9--9--9--9--9--9--9--9--4-4-4-4-4-4-4--6-6-6-6-6-6-6-6----|
D|----------------------------------------------------------------6-6-6-6-6-6-6-6----|


e|-----------------------------------------------------------------------------------|
B|-----------------------------------------------------------------------------------|
G|----11-11-11-11-11-11-11-10-10-10-10-10-10-10-10-6-6-6-6-6-6-6---------------------|
D|----x--x--x--x--x--x--x--x--x--x--x--x--x--x--x--x-x-x-x-x-x-x--6-6-6-6-6-6-4-4----|
A|----9--9--9--9--9--9--9--9--9--9--9--9--9--9--9--4-4-4-4-4-4-4--6-6-6-6-6-6-4-4----|
D|----------------------------------------------------------------6-6-6-6-6-6-4-4----|


e|-----------------------------------------------------------------------------------|
B|-----------------------------------------------------------------------------------|
G|----11-11-11-11-11-11-11-10-10-10-10-10-10-10-10-6-6-6-6-6-6-6---------------------|
D|----x--x--x--x--x--x--x--x--x--x--x--x--x--x--x--x-x-x-x-x-x-x--6-6-6-6-6-6-6-6----|
A|----9--9--9--9--9--9--9--9--9--9--9--9--9--9--9--4-4-4-4-4-4-4--6-6-6-6-6-6-6-6----|
D|----------------------------------------------------------------6-6-6-6-6-6-6-6----|


e|-----------------------------------------------------------------------------------|
B|-----------------------------------------------------------------------------------|
G|----11-11-11-11-11-11-11-10-10-10-10-10-10-10-10-6-6-6-6-6-6-6---------------------|
D|----x--x--x--x--x--x--x--x--x--x--x--x--x--x--x--x-x-x-x-x-x-x--6-6-6-6-6-6-4-4----|
A|----9--9--9--9--9--9--9--9--9--9--9--9--9--9--9--4-4-4-4-4-4-4--6-6-6-6-6-6-4-4----|
D|----------------------------------------------------------------6-6-6-6-6-6-4-4----|


Bridge


e|-----------------------------------------------------------------------------------|
B|-----------------------------------------------------------------------------------|
G|----3-3-3-3-3-3-3-4-6-6-6-6-6-6-3-3------------------------------------------------|
D|----x-x-x-x-x-x-x-x-x-x-x-x-x-x-x-x-9-9-9-9-9-9-9-8-11-11-11-11-11-11-11-11--------|
A|----1-1-1-1-1-1-1-2-4-4-4-4-4-4-1-1-9-9-9-9-9-9-9-8-11-11-11-11-11-11-11-11--------|
D|------------------------------------9-9-9-9-9-9-9-8-11-11-11-11-11-11-11-11--------|


e|-----------------------------------------------------------------------------------|
B|-----------------------------------------------------------------------------------|
G|----3-3-3-3-3-3-3-4-6-6-6-6-6-6-3-3------------------------------------------------|
D|----x-x-x-x-x-x-x-x-x-x-x-x-x-x-x-x-9-9-9-9-9-9-9-8-11-11-11-11-12-12-12-12--------|
A|----1-1-1-1-1-1-1-2-4-4-4-4-4-4-1-1-9-9-9-9-9-9-9-8-11-11-11-11-12-12-12-12--------|
D|------------------------------------9-9-9-9-9-9-9-8-11-11-11-11-12-12-12-12--------|


e|-----------------------------------------------------------------------------------|
B|-----------------------------------------------------------------------------------|
G|----3-3-3-3-3-3-3-4-6-6-6-6-6-6-3-3------------------------------------------------|
D|----x-x-x-x-x-x-x-x-x-x-x-x-x-x-x-x-9-9-9-9-9-9-9-8-11-11-11-11-11-11-11-11--------|
A|----1-1-1-1-1-1-1-2-4-4-4-4-4-4-1-1-9-9-9-9-9-9-9-8-11-11-11-11-11-11-11-11--------|
D|------------------------------------9-9-9-9-9-9-9-8-11-11-11-11-11-11-11-11--------|


e|-----------------------------------------------------------------------------------|
B|-----------------------------------------------------------------------------------|
G|----3-3-3-3-3-3-3-4-6-6-6-6-6-6-3-3------------------------------------------------|
D|----x-x-x-x-x-x-x-x-x-x-x-x-x-x-x-x-9-9-9-9-9-9-9-8-11-11-11-11-11-11-11-11--------|
A|----1-1-1-1-1-1-1-2-4-4-4-4-4-4-1-1-9-9-9-9-9-9-9-8-11-11-11-11-11-11-11-11--------|
D|------------------------------------9-9-9-9-9-9-9-8-11-11-11-11-11-11-11-11--------|


e|-----------------------------------------------------------------------------------|
B|-----------------------------------------------------------------------------------|
G|-----------------------------------------------------------------------------------|
D|--\-6-6-6-6-6-6-6-6-5-5-5-5-5-5-5-5-5-5-5-5-5-5-5-5-5-5-8-8-8-8-9-9-9-9-9-9-9-9-9--|
A|-----------------------------------------------------------------------------------|
D|-----------------------------------------------------------------------------------|


e|-----------------------------------------------------------------------------------|
B|-----------------------------------------------------------------------------------|
G|-----------------------------------------------------------------------------------|
D|----9-9-9-9-9-9-9-8-8-8-8-8-8-8-8-8-8-8-8-8-8-8-8----------------------------------|
A|-----------------------------------------------------------------------------------|
D|-----------------------------------------------------------------------------------|


Chorus


e|-----------------------------------------------------------------------------------|
B|-----------------------------------------------------------------------------------|
G|----11-11-11-11-11-11-11-10-10-10-10-10-10-10-10-6-6-6-6-6-6-6---------------------|
D|----x--x--x--x--x--x--x--x--x--x--x--x--x--x--x--x-x-x-x-x-x-x--6-6-6-6-6-6-6-6----|
A|----9--9--9--9--9--9--9--9--9--9--9--9--9--9--9--4-4-4-4-4-4-4--6-6-6-6-6-6-6-6----|
D|----------------------------------------------------------------6-6-6-6-6-6-6-6----|


e|-----------------------------------------------------------------------------------|
B|-----------------------------------------------------------------------------------|
G|----11-11-11-11-11-11-11-10-10-10-10-10-10-10-10-6-6-6-6-6-6-6---------------------|
D|----x--x--x--x--x--x--x--x--x--x--x--x--x--x--x--x-x-x-x-x-x-x--6-6-6-6-6-6-4-4----|
A|----9--9--9--9--9--9--9--9--9--9--9--9--9--9--9--4-4-4-4-4-4-4--6-6-6-6-6-6-4-4----|
D|----------------------------------------------------------------6-6-6-6-6-6-4-4----|


e|-----------------------------------------------------------------------------------|
B|-----------------------------------------------------------------------------------|
G|----11-11-11-11-11-11-11-10-10-10-10-10-10-10-10-6-6-6-6-6-6-6---------------------|
D|----x--x--x--x--x--x--x--x--x--x--x--x--x--x--x--x-x-x-x-x-x-x--6-6-6-6-6-6-6-6----|
A|----9--9--9--9--9--9--9--9--9--9--9--9--9--9--9--4-4-4-4-4-4-4--6-6-6-6-6-6-6-6----|
D|----------------------------------------------------------------6-6-6-6-6-6-6-6----|


e|-----------------------------------------------------------------------------------|
B|-----------------------------------------------------------------------------------|
G|----11-11-11-11-11-11-11-10-10-10-10-10-10-10-10-6-6-6-6-6-6-6---------------------|
D|----x--x--x--x--x--x--x--x--x--x--x--x--x--x--x--x-x-x-x-x-x-x--6-6-6-6-6-6-4-4----|
A|----9--9--9--9--9--9--9--9--9--9--9--9--9--9--9--4-4-4-4-4-4-4--6-6-6-6-6-6-4-4----|
D|----------------------------------------------------------------6-6-6-6-6-6-4-4----|


e|-----------------------------------------------------------------------------------|
B|-----------------------------------------------------------------------------------|
G|-----------------------------------------------------------------------------------|
D|----1----let ring------------------------------------------------------------------|
A|----1------------------------------------------------------------------------------|
D|----1-------------------------------------------------------------------------------|
comments
We did not receive enough feedback on this tab! Please rate:
print report bad tab
1 2 3 4 5
1 comment total.
+1 reply
black_roses_jmt wrote on May 8 2007, 08:44 pm

dude, great job with this tab, 5 stars, but some lyrics on here would help, i know them, but some people might not

I want to post or [tab]
guest
You may want to rate the tab now too:
select rating
Please do not post tabs as comments. Select "correction" instead!