Oops, an error
Loading. Please wait.

Anthem Part Two Tab

21,400 views 11 this week
9 commentsread comments
1 2 3 4 5
accurate
x 32
Autoscroll
+/-
esc
set tempo
stop
Contributor
Hey! There's an official Ultimate Guitar app which is ideal
for learning songs when you're away from computer. Get the app
WARNING: You are trying to view
                                    content from Ultimate-Guitar.com
                                    in an unauthorized application,
                                    which is prohibited.

                                    Please use an official Ultimate
                                    Guitar Tabs application for iPhone,
                                    iPad or Android to access legitimate
                                    chords, guitar, bass, and drum tabs
                                    from Ultimate-Guitar.com database.

                                    Type "ultimate guitar tabs" in Apple
                                    App Store's or Android Market's
                                    search to find the application.
Artist - blink-182
Song - Anthem Part Two
Album - Take Off Your Pants And Jacket
Track - 1
Tabbed by - Olly Wharton
Email - born2mesmerise@hotmail.com

   
   w/clean tone
    C

E |----------------------------------|----------------------------------|
B |-8-------8-------6-------6--------|-5-------5-------6-------6--------|
G |-----5-------5-------5-------5----|-----5-------5-------5-------5----|
D |----------------------------------|----------------------------------|
A |----------------------------------|----------------------------------|
E |----------------------------------|----------------------------------|




E |----------------------------------|----------------------------------|
B |-8-------8-------6-------6--------|-5-------5-------6-------6--------|
G |-----5-------5-------5-------5----|-----5-------5-------5-------5----|
D |----------------------------------|----------------------------------|
A |----------------------------------|----------------------------------|
E |----------------------------------|----------------------------------|

    
    C               Dmin               Amin            F

E |----------------------------------|----------------------------------|
B |-8-------8-------6-------6--------|-5-------5-------6-------6--------|
G |-----5-------5-------5-------5----|-----5-------5-------5-------5----|
D |----------------------------------|----------------------------------|
A |----------------------------------|----------------------------------|
E |----------------------------------|----------------------------------|


    C               Dmin               Amin            F

E |----------------------------------|----------------------------------|
B |-8-------8-------6-------6--------|-5-------5-------6-------6--------|
G |-----5-------5-------5-------5----|-----5-------5-------5-------5----|
D |----------------------------------|----------------------------------|
A |----------------------------------|----------------------------------|
E |----------------------------------|----------------------------------|


    C               Dmin               Amin            F

E |----------------------------------|----------------------------------|
B |-8-------8-------6-------6--------|-5-------5-------6-------6--------|
G |-----5-------5-------5-------5----|-----5-------5-------5-------5----|
D |----------------------------------|----------------------------------|
A |----------------------------------|----------------------------------|
E |----------------------------------|----------------------------------|
  |                                  |                                  |
  |                                  |                                  |
  | w/distortion                     |                                  | 
  |                                  |                                  |
E |----------------------------------|----------------------------------|
B |----------------------------------|----------------------------------|
G |----------------------------------|----------------------------------|
D |-----0h3-----2-------0h3-----2----|-----0h3-----2-------0-------0----|
A |-3-3-----3-3-----3-3-----3-3------|-3-3-----3-3-----3-3-----3-3------|
E |----------------------------------|----------------------------------|
P.M ...     ...     ...     ...        ...     ...     ...     ...

    C               Dmin               Amin            F

E |----------------------------------|----------------------------------|
B |-8-------8-------6-------6--------|-5-------5-------6-------6--------|
G |-----5-------5-------5-------5----|-----5-------5-------5-------5----|
D |----------------------------------|----------------------------------|
A |----------------------------------|----------------------------------|
E |----------------------------------|----------------------------------|
  |                                  |                                  |
  |                                  |                                  |
  |                                  |                                  | 
  |                                  |                                  |
E |----------------------------------|----------------------------------|
B |----------------------------------|----------------------------------|
G |----------------------------------|----------------------------------|
D |-----0h3-----2-------0h3-----2----|-----0h3-----2-------0-------0----|
A |-3-3-----3-3-----3-3-----3-3------|-3-3-----3-3-----3-3-----3-3------|
E |----------------------------------|----------------------------------|
P.M ...     ...     ...     ...        ...     ...     ...     ...

    C               Dmin               Amin            F

E |----------------------------------|----------------------------------|
B |-8-------8-------6-------6--------|-5-------5-------6-------6--------|
G |-----5-------5-------5-------5----|-----5-------5-------5-------5----|
D |----------------------------------|----------------------------------|
A |----------------------------------|----------------------------------|
E |----------------------------------|----------------------------------|
  |                                  |                                  |
  |                                  |                                  |
  |                                  |                                  | 
  |                                  |                                  |
E |----------------------------------|----------------------------------|
B |----------------------------------|----------------------------------|
G |----------------------------------|----------------------------------|
D |-----0h3-----2-------0h3-----2----|-----0h3-----2-------0-------0----|
A |-3-3-----3-3-----3-3-----3-3------|-3-3-----3-3-----3-3-----3-3------|
E |----------------------------------|----------------------------------|
P.M ...     ...     ...     ...        ...     ...     ...     ...

    C               Dmin               Amin            F

E |----------------------------------|----------------------------------|
B |-8-------8-------6-------6--------|-5-------5-------6-------6--------|
G |-----5-------5-------5-------5----|-----5-------5-------5-------5----|
D |----------------------------------|----------------------------------|
A |----------------------------------|----------------------------------|
E |----------------------------------|----------------------------------|
  |                                  |                                  |
  |                                  |                                  |
  |                                  |                                  | 
  |                                  |                                  |
E |----------------------------------|----------------------------------|
B |----------------------------------|----------------------------------|
G |----------------------------------|----------------------------------|
D |-----0h3-----2-------0h3-----2----|-----0h3-----2-------0-------0----|
A |-3-3-----3-3-----3-3-----3-3------|-3-3-----3-3-----3-3-----3-3------|
E |----------------------------------|----------------------------------|
P.M ...     ...     ...     ...        ...     ...     ...     ...
     
   w/distortion
     C

E |---------------------------------------------------------------------|
B |---------------------------------------------------------------------|
G |--9---9---9---10--10--10--9---9---9---5---5---5---7---7---7---7------|
D |--x---x---x---x---x---x---x---x---x---x---x---x---x---x---x---x------|
A |--7---7---7---8---8---8---7---7---7---3---3---3---5---5---5---5------|
E |---------------------------------------------------------------------|


     Amin                            F

E |---------------------------------------------------------------------|
B |---------------------------------------------------------------------|
G |--9---9---9---10--10--10--9---9---9---5---5---5---7---7---7---7------|
D |--x---x---x---x---x---x---x---x---x---x---x---x---x---x---x---x------|
A |--7---7---7---8---8---8---7---7---7---3---3---3---5---5---5---5------|
E |---------------------------------------------------------------------|


     C

E |---------------------------------------------------------------------|
B |---------------------------------------------------------------------|
G |--9---9---9---10--10--10--9---9---9---5---5---5---7---7---7---7------|
D |--x---x---x---x---x---x---x---x---x---x---x---x---x---x---x---x------|
A |--7---7---7---8---8---8---7---7---7---3---3---3---5---5---5---5------|
E |---------------------------------------------------------------------|


     Amin                            F

E |---------------------------------------------------------------------|
B |---------------------------------------------------------------------|
G |--9---9---9---10--10--10--5---5---5---5---5---5---5---5---5---5------|
D |--x---x---x---x---x---x---x---x---x---x---x---x---x---x---x---x------|
A |--7---7---7---8---8---8---3---3---3---3---3---3---3---3---3---3------|
E |---------------------------------------------------------------------|


    C                                 *(Amin)          (F)
                         (*chords implied my bass)
E |----------------------------------|----------------------------------|
B |----------------------------------|----------------------------------|
G |-5--------------(5)---------------|-(5)------------------------------|
D |-x--------------------------------|----------------------------------|
A |-3--------------(3)---------------|-(3)------------------------------|
E |----------------------------------|----------------------------------|


   (C)                                 (Amin)          (F)  

E |----------------------------------|----------------------------------|
B |-----------R----------------------|----------------------------------|
G |------------E---------------------|-------------------------9-9-9----|
D |-------------S--------------------|-------------------------x-x-x----|
A |--------------T-------------------|-------------------------7-7-7----|
E |----------------------------------|----------------------------------|


    C                                  Amin            F

E |----------------------------------|----------------------------------|
B |----------------------------------|----------------------------------|
G |-5--------------------------------|----------------------------------|
D |-x--------------------------------|----------------------------------|
A |-3---3-3-3-3-3-3-3-3-3-3-3-3-3-3--|-0-0-0-0-0-0-0-0------------------|
E |----------------------------------|-----------------1-1-1-1-1-1-1-1--|
    P.M ...........................    ...............................

    C                                  Amin            F

E |----------------------------------|----------------------------------|
B |----------------------------------|----------------------------------|
G |----------------------------------|----------------------------------|
D |----------------------------------|----------------------------------|
A |-3-3-3-3-3-3-3-3-3-3-3-3-3-3-3-3--|-0-0-0-0-0-0-0-0------------------|
E |----------------------------------|-----------------1-1-1-1-1-1-1-1--|
P.M ...............................    ...............................

   (Amin)           (G)               (F)

E |----------------------------------|----------------------------------|
B |-----------R----------------------|-----------R----------------------|
G |------------E---------------------|------------E---------------------|
D |-------------S--------------------|-------------S--------------------|
A |--------------T-------------------|--------------T-------------------|
E |----------------------------------|----------------------------------|


    C                                  (Amin)         (F)

E |----------------------------------|----------------------------------|
B |----------------------------------|----------------------------------|
G |-5--------------(5)---------------|-(5)------------------------------|
D |-x--------------------------------|----------------------------------|
A |-3--------------(3)---------------|-(3)------------------------------|
E |----------------------------------|----------------------------------|


   (C)                                (Amin)          (F)  

E |----------------------------------|----------------------------------|
B |-----------R----------------------|----------------------------------|
G |------------E---------------------|-------------------------9-9-9----|
D |-------------S--------------------|-------------------------x-x-x----|
A |--------------T-------------------|-------------------------7-7-7----|
E |----------------------------------|----------------------------------|


    C                                  Amin            F

E |----------------------------------|----------------------------------|
B |----------------------------------|----------------------------------|
G |-5--------------------------------|----------------------------------|
D |-x--------------------------------|----------------------------------|
A |-3---3-3-3-3-3-3-3-3-3-3-3-3-3-3--|-0-0-0-0-0-0-0-0------------------|
E |----------------------------------|-----------------1-1-1-1-1-1-1-1--|
    P.M ...........................    ...............................

    C                                  Amin            F

E |----------------------------------|----------------------------------|
B |----------------------------------|----------------------------------|
G |----------------------------------|----------------------------------|
D |----------------------------------|----------------------------------|
A |-3-3-3-3-3-3-3-3-3-3-3-3-3-3-3-3--|-0-0-0-0-0-0-0-0------------------|
E |----------------------------------|-----------------1-1-1-1-1-1-1-1--|
P.M ...............................    ...............................

   (Amin)          (G)                (F)

E |----------------------------------|----------------------------------|
B |-----------R----------------------|-----------R----------------------|
G |------------E---------------------|------------E---------------------|
D |-------------S--------------------|-------------S--------------------|
A |--------------T-------------------|--------------T-------------------|
E |----------------------------------|----------------------------------|


    C/E             F                  C               G

E |----------------------------------|----------------------------------|
B |----------------------------------|----------------------------------|
G |----------------------------------|-5---5-5-5-5-5-5------------------|
D |-2---2-2-2-2-2-2-3-3-3-3-3-3-3-3--|-5---5-5-5-5-5-5-5-5-5-5-5-5-5-5--|
A |-3---3-3-3-3-3-3-3-3-3-3-3-3-3-3--|-3---3-3-3-3-3-3-5-5-5-5-5-5-5-5--|
E |-0---0-0-0-0-0-0-1-1-1-1-1-1-1-1--|-----------------3-3-3-3-3-3-3-3--|


    C/E             F                  C               G

E |----------------------------------|----------------------------------|
B |----------------------------------|----------------------------------|
G |----------------------------------|-5---5-5-5-5-5-5------------------|
D |-2---2-2-2-2-2-2-3-3-3-3-3-3-3-3--|-5---5-5-5-5-5-5-5-5-5-5-5-5-5-5--|
A |-3---3-3-3-3-3-3-3-3-3-3-3-3-3-3--|-3---3-3-3-3-3-3-5-5-5-5-5-5-5-5--|
E |-0---0-0-0-0-0-0-1-1-1-1-1-1-1-1--|-----------------3-3-3-3-3-3-3-3--|


   Amin             F                 C                G

E |----------------------------------|----------------------------------|
B |----------------------------------|----------------------------------|
G |----------------------------------|----------------------------------|
D |----------------------------------|----------------------------------|
A |-0-0-0-0-0-0-0-0------------------|-3-3-3-3-3-3-3-3------------------|
E |-----------------1-1-1-1-1-1-1-1--|-----------------3-3-3-3-3-3-3-3--|     
P.M ...............................  | ...............................  | 
  |                                  |                                  |
  | w/distortion                     |                                  |
  |                                  |                                  |
E |----------------------------------|----------------------------------|
B |-13131313131313131313131313131313-|-13131313131313131313131313131313-|
G |-12121212121212121212121212121212-|-12121212121212121212121212121212-|
D |-10101010101010101010101010101010-|-10101010101010101010101010101010-|
A |----------------------------------|----------------------------------|
E |----------------------------------|----------------------------------|


    Amin             F

E |----------------------------------|
B |----------------------------------|
G |----------------------------------|
D |------------------3---------------|
A |-0-0-0-0-0-0-0-0--3---------------|
E |------------------1---------------|
P.M ...............                  |
  |                                  |
  |                                  |
  |                                  |
E |----------------------------------|
B |-131313131313131313---------------|
G |-121212121212121212---------------|
D |-101010101010101010---------------|
A |----------------------------------|
E |----------------------------------|


     C

E |---------------------------------------------------------------------|
B |---------------------------------------------------------------------|
G |--9---9---9---10--10--10--9---9---9---5---5---5---7---7---7---7------|
D |--x---x---x---x---x---x---x---x---x---x---x---x---x---x---x---x------|
A |--7---7---7---8---8---8---7---7---7---3---3---3---5---5---5---5------|
E |---------------------------------------------------------------------|


     Amin                            F

E |---------------------------------------------------------------------|
B |---------------------------------------------------------------------|
G |--9---9---9---10--10--10--9---9---9---5---5---5---7---7---7---7------|
D |--x---x---x---x---x---x---x---x---x---x---x---x---x---x---x---x------|
A |--7---7---7---8---8---8---7---7---7---3---3---3---5---5---5---5------|
E |---------------------------------------------------------------------|


     C

E |---------------------------------------------------------------------|
B |---------------------------------------------------------------------|
G |--9---9---9---10--10--10--9---9---9---5---5---5---7---7---7---7------|
D |--x---x---x---x---x---x---x---x---x---x---x---x---x---x---x---x------|
A |--7---7---7---8---8---8---7---7---7---3---3---3---5---5---5---5------|
E |---------------------------------------------------------------------|


     Amin                            F

E |---------------------------------------------------------------------|
B |---------------------------------------------------------------------|
G |--9---9---9---10--10--10--5---5---5---5---5---5---5---5---5---5------|
D |--x---x---x---x---x---x---x---x---x---x---x---x---x---x---x---x------|
A |--7---7---7---8---8---8---3---3---3---3---3---3---3---3---3---3------|
E |---------------------------------------------------------------------|


    C                                  (Amin)         (F)

E |----------------------------------|----------------------------------|
B |----------------------------------|----------------------------------|
G |-5--------------(5)---------------|-(5)------------------------------|
D |-x--------------------------------|----------------------------------|
A |-3--------------(3)---------------|-(3)------------------------------|
E |----------------------------------|----------------------------------|


   (C)                                 (Amin)         (F)  

E |----------------------------------|----------------------------------|
B |-----------R----------------------|----------------------------------|
G |------------E---------------------|-------------------------9-9-9----|
D |-------------S--------------------|-------------------------x-x-x----|
A |--------------T-------------------|-------------------------7-7-7----|
E |----------------------------------|----------------------------------|


    C                                  Amin            F

E |----------------------------------|----------------------------------|
B |----------------------------------|----------------------------------|
G |-5--------------------------------|----------------------------------|
D |-x--------------------------------|----------------------------------|
A |-3---3-3-3-3-3-3-3-3-3-3-3-3-3-3--|-0-0-0-0-0-0-0-0------------------|
E |----------------------------------|-----------------1-1-1-1-1-1-1-1--|
    P.M ...........................    ...............................

    C                                  Amin            F

E |----------------------------------|----------------------------------|
B |----------------------------------|----------------------------------|
G |----------------------------------|----------------------------------|
D |----------------------------------|----------------------------------|
A |-3-3-3-3-3-3-3-3-3-3-3-3-3-3-3-3--|-0-0-0-0-0-0-0-0------------------|
E |----------------------------------|-----------------1-1-1-1-1-1-1-1--|
P.M ...............................    ...............................

   (Amin)          (G)                (F)

E |----------------------------------|----------------------------------|
B |-----------R----------------------|-----------R----------------------|
G |------------E---------------------|------------E---------------------|
D |-------------S--------------------|-------------S--------------------|
A |--------------T-------------------|--------------T-------------------|
E |----------------------------------|----------------------------------|


    C/E             F                  C               G

E |----------------------------------|----------------------------------|
B |----------------------------------|----------------------------------|
G |----------------------------------|-5---5-5-5-5-5-5------------------|
D |-2---2-2-2-2-2-2-3-3-3-3-3-3-3-3--|-5---5-5-5-5-5-5-5-5-5-5-5-5-5-5--|
A |-3---3-3-3-3-3-3-3-3-3-3-3-3-3-3--|-3---3-3-3-3-3-3-5-5-5-5-5-5-5-5--|
E |-0---0-0-0-0-0-0-1-1-1-1-1-1-1-1--|-----------------3-3-3-3-3-3-3-3--|


    C/E             F                  C               G

E |----------------------------------|----------------------------------|
B |----------------------------------|----------------------------------|
G |----------------------------------|-5---5-5-5-5-5-5------------------|
D |-2---2-2-2-2-2-2-3-3-3-3-3-3-3-3--|-5---5-5-5-5-5-5-5-5-5-5-5-5-5-5--|
A |-3---3-3-3-3-3-3-3-3-3-3-3-3-3-3--|-3---3-3-3-3-3-3-5-5-5-5-5-5-5-5--|
E |-0---0-0-0-0-0-0-1-1-1-1-1-1-1-1--|-----------------3-3-3-3-3-3-3-3--|


   Amin             F                 C                G

E |----------------------------------|----------------------------------|
B |----------------------------------|----------------------------------|
G |----------------------------------|----------------------------------|
D |----------------------------------|----------------------------------|
A |-0-0-0-0-0-0-0-0------------------|-3-3-3-3-3-3-3-3------------------|
E |-----------------1-1-1-1-1-1-1-1--|-----------------3-3-3-3-3-3-3-3--|
P.M ...............................  | ...............................  | 
  |                                  |                                  |
  |                                  |                                  |
  |                                  |                                  |
E |----------------------------------|----------------------------------|
B |-13131313131313131313131313131313-|-13131313131313131313131313131313-|
G |-12121212121212121212121212121212-|-12121212121212121212121212121212-|
D |-10101010101010101010101010101010-|-10101010101010101010101010101010-|
A |----------------------------------|----------------------------------|
E |----------------------------------|----------------------------------|


    Amin             F

E |----------------------------------|
B |----------------------------------|
G |----------------------------------|
D |------------------3---------------|
A |-0-0-0-0-0-0-0-0--3---------------|
E |------------------1---------------|
P.M ...............                  |
  |                                  |
  |                                  |
  |                                  |
E |----------------------------------|
B |-131313131313131313---------------|
G |-121212121212121212---------------|
D |-101010101010101010---------------|
A |----------------------------------|
E |----------------------------------|


    C               (C)                (Amin)          (F)

E |----------------------------------|----------------------------------|
B |----------------------------------|----------------------------------|
G |-5---------------(5)--------------|-(5)------------------------------|
D |-x--------------------------------|----------------------------------|
A |-3---------------(3)--------------|-(3)------------------------------|
E |----------------------------------|----------------------------------|


   (C)                                 (Amin)          (F)

E |----------------------------------|----------------------------------|
B |-----------R----------------------|-----------R----------------------|
G |------------E---------------------|------------E---------------------|
D |-------------S--------------------|-------------S--------------------|
A |--------------T-------------------|--------------T-------------------|
E |----------------------------------|----------------------------------|


   (C)                                 (Amin)          (F)

E |----------------------------------|----------------------------------|
B |-----------R----------------------|-----------R----------------------|
G |------------E---------------------|------------E---------------------|
D |-------------S--------------------|-------------S--------------------|
A |--------------T-------------------|--------------T-------------------|
E |----------------------------------|----------------------------------|


   (C)                                 (Amin)          (F)

E |----------------------------------|----------------------------------|
B |-----------R----------------------|-----------R----------------------|
G |------------E---------------------|------------E---------------------|
D |-------------S--------------------|-------------S--------------------|
A |--------------T-------------------|--------------T-------------------|
E |----------------------------------|----------------------------------|

   w/clean tone
    C

E |----------------------------------|----------------------------------|
B |----------------------------------|----------------------------------|
G |-5-5-5-5-5-5-5-5-5-5-5-5-5-5-5-5--|-5-5-5-5-5-5-5-5-5-5-5-5-5-5-5-5--|
D |-x-x-x-x-x-x-x-x-x-x-x-x-x-x-x-x--|-x-x-x-x-x-x-x-x-x-x-x-x-x-x-x-x--|
A |-3-3-3-3-3-3-3-3-3-3-3-3-3-3-3-3--|-3-3-3-3-3-3-3-3-3-3-3-3-3-3-3-3--|
E |----------------------------------|----------------------------------|




E |----------------------------------|----------------------------------|
B |----------------------------------|----------------------------------|
G |-5-5-5-5-5-5-5-5-5-5-5-5-5-5-5-5--|-5-5-5-5-5-5-5-5------------------|
D |-x-x-x-x-x-x-x-x-x-x-x-x-x-x-x-x--|-x-x-x-x-x-x-x-x------------------|
A |-3-3-3-3-3-3-3-3-3-3-3-3-3-3-3-3--|-3-3-3-3-3-3-3-3------------------|
E |----------------------------------|----------------------------------|

   w/distortion
    C/E             F                  C               G

E |----------------------------------|----------------------------------|
B |----------------------------------|----------------------------------|
G |----------------------------------|-5---5-5-5-5-5-5------------------|
D |-2---2-2-2-2-2-2-3-3-3-3-3-3-3-3--|-5---5-5-5-5-5-5-5-5-5-5-5-5-5-5--|
A |-3---3-3-3-3-3-3-3-3-3-3-3-3-3-3--|-3---3-3-3-3-3-3-5-5-5-5-5-5-5-5--|
E |-0---0-0-0-0-0-0-1-1-1-1-1-1-1-1--|-----------------3-3-3-3-3-3-3-3--|


    C/E             F                  C               G

E |----------------------------------|----------------------------------|
B |----------------------------------|----------------------------------|
G |----------------------------------|-5---5-5-5-5-5-5------------------|
D |-2---2-2-2-2-2-2-3-3-3-3-3-3-3-3--|-5---5-5-5-5-5-5-5-5-5-5-5-5-5-5--|
A |-3---3-3-3-3-3-3-3-3-3-3-3-3-3-3--|-3---3-3-3-3-3-3-5-5-5-5-5-5-5-5--|
E |-0---0-0-0-0-0-0-1-1-1-1-1-1-1-1--|-----------------3-3-3-3-3-3-3-3--|


   Amin             F                 C                G

E |----------------------------------|----------------------------------|
B |----------------------------------|----------------------------------|
G |----------------------------------|----------------------------------|
D |----------------------------------|----------------------------------|
A |-0-0-0-0-0-0-0-0------------------|-3-3-3-3-3-3-3-3------------------|
E |-----------------1-1-1-1-1-1-1-1--|-----------------3-3-3-3-3-3-3-3--|
P.M ...............................  | ...............................  |
  |                                  |                                  | 
  |                                  |                                  |
  |                                  |                                  |
E |----------------------------------|----------------------------------|
B |-13131313131313131313131313131313-|-13131313131313131313131313131313-|
G |-12121212121212121212121212121212-|-12121212121212121212121212121212-|
D |-10101010101010101010101010101010-|-10101010101010101010101010101010-|
A |----------------------------------|----------------------------------|
E |----------------------------------|----------------------------------|


    Amin             F

E |----------------------------------|
B |----------------------------------|
G |----------------------------------|
D |------------------3---------------|
A |-0-0-0-0-0-0-0-0--3---------------|
E |------------------1---------------|
P.M ...............                  |
  |                                  |
  |                                  |
  |                                  |
E |----------------------------------|
B |-131313131313131313---------------|
G |-121212121212121212---------------|
D |-101010101010101010---------------|
A |----------------------------------|
E |----------------------------------|


    C               Dmin               Amin            F

E |----------------------------------|----------------------------------|
B |----------------------------------|----------------------------------|
G |----------------------------------|----------------------------------|
D |-----0h3-----2-------0h3-----2----|-----0h3-----2-------0-------0----|
A |-3-3-----3-3-----3-3-----3-3------|-3-3-----3-3-----3-3-----3-3------|
E |----------------------------------|----------------------------------|
P.M ...     ...     ...     ...      | ...     ...     ...     ...      | 
  |                                  |                                  |
  | w/distortion                     |                                  |
  |                                  |                                  |
E |----------------------------------|----------------------------------|
B |----------------------------------|----------------------------------|
G |-5---5-5-5-5-5-5-7---7-7-7-7-7-7--|----------------------------------|
D |-5---5-5-5-5-5-5-7---7-7-7-7-7-7--|-7---7-7-7-7-7-7-3---3-3-3-3-3-3--|
A |-3---3-3-3-3-3-3-5---5-5-5-5-5-5--|-7---7-7-7-7-7-7-3---3-3-3-3-3-3--|
E |----------------------------------|-5---5-5-5-5-5-5-1---1-1-1-1-1-1--|


    C           Dmin                   Amin            F

E |----------------------------------|----------------------------------|
B |----------------------------------|----------------------------------|
G |----------------------------------|----------------------------------|
D |-----0h3-----2-------0h3-----2----|-----0h3-----2-------0-------0----|
A |-3-3-----3-3-----3-3-----3-3------|-3-3-----3-3-----3-3-----3-3------|
E |----------------------------------|----------------------------------|
P.M ...     ...     ...     ...      | ...     ...     ...     ...      | 
  |                                  |                                  |
  |                                  |                                  |
  |                                  |                                  |
E |----------------------------------|----------------------------------|
B |----------------------------------|----------------------------------|
G |-5---5-5-5-5-5-5-7---7-7-7-7-7-7--|----------------------------------|
D |-5---5-5-5-5-5-5-7---7-7-7-7-7-7--|-7---7-7-7-7-7-7-3---3-3-3-3-3-3--|
A |-3---3-3-3-3-3-3-5---5-5-5-5-5-5--|-7---7-7-7-7-7-7-3---3-3-3-3-3-3--|
E |----------------------------------|-5---5-5-5-5-5-5-1---1-1-1-1-1-1--|

   w/clean tone
    C               Dmin               Amin            F

E |----------------------------------|----------------------------------|
B |-8-------8-------6-------6--------|-5-------5-------6-------6--------|
G |-----5-------5-------5-------5----|-----5-------5-------5-------5----|
D |----------------------------------|----------------------------------|
A |----------------------------------|----------------------------------|
E |----------------------------------|----------------------------------|
  |                                  |                                  |
  |                                  |                                  |
  |                                  |                                  |
  |                                  |                                  |
E |----------------------------------|----------------------------------|
B |----------------------------------|----------------------------------|
G |----------------------------------|----------------------------------|
D |-----0h3-----2-------0h3-----2----|-----0h3-----2-------0-------0----|
A |-3-3-----3-3-----3-3-----3-3------|-3-3-----3-3-----3-3-----3-3------|
E |----------------------------------|----------------------------------|
P.M ...     ...     ...     ...      | ...     ...     ...     ...      | 
  |                                  |                                  |
  |                                  |                                  |
  |                                  |                                  |
E |----------------------------------|----------------------------------|
B |----------------------------------|----------------------------------|
G |-5---5-5-5-5-5-5-7---7-7-7-7-7-7--|----------------------------------|
D |-5---5-5-5-5-5-5-7---7-7-7-7-7-7--|-7---7-7-7-7-7-7-3---3-3-3-3-3-3--|
A |-3---3-3-3-3-3-3-5---5-5-5-5-5-5--|-7---7-7-7-7-7-7-3---3-3-3-3-3-3--|
E |----------------------------------|-5---5-5-5-5-5-5-1---1-1-1-1-1-1--|


    C               Dmin               Amin            F
  
E |----------------------------------|----------------------------------|
B |-8-------8-------6-------6--------|-5-------5-------6-------(6)------|
G |-----5-------5-------5-------5----|-----5-------5--------------------|
D |----------------------------------|----------------------------------|
A |----------------------------------|----------------------------------|
E |----------------------------------|----------------------------------|
  |                                  |                                  |
  |                                  |                                  |
  |                                  |                                  |
  |                                  |                                  |
E |----------------------------------|----------------------------------|
B |----------------------------------|----------------------------------|
G |----------------------------------|----------------------------------|
D |-----0h3-----2-------0h3-----2----|-----0h3-----2--------------------|
A |-3-3-----3-3-----3-3-----3-3------|-3-3-----3-3-----3-------(3)------|
E |----------------------------------|----------------------------------|
P.M ...     ...     ...     ...      | ...     ...                      | 
  |                                  |                                  |
  |                                  |                                  |
  |                                  |                                  |
E |----------------------------------|----------------------------------|
B |----------------------------------|----------------------------------|
G |-5---5-5-5-5-5-5-7---7-7-7-7-7-7--|----------------------------------|
D |-5---5-5-5-5-5-5-7---7-7-7-7-7-7--|-7---7-7-7-7-7-7-3-------(3)------|
A |-3---3-3-3-3-3-3-5---5-5-5-5-5-5--|-7---7-7-7-7-7-7-3-------(3)------|
E |----------------------------------|-5---5-5-5-5-5-5-1-------(1)------|


    (F)              (F)               (F)

E |----------------------------------|----------------------------------|
B |-(6)--------------(6)-------------|-(6)------------------------------|
G |----------------------------------|----------------------------------|
D |----------------------------------|----------------------------------|
A |----------------------------------|----------------------------------|
E |----------------------------------|----------------------------------|
  |                                  |                                  |
  |                                  |                                  |
  |                                  |                                  |
  |                                  |                                  |
E |----------------------------------|----------------------------------|
B |----------------------------------|----------------------------------|
G |----------------------------------|----------------------------------|
D |----------------------------------|----------------------------------|
A |-(3)--------------(3)-------------|-(3)------------------------------|
E |----------------------------------|----------------------------------|
  |                                  |                                  |
  |                                  |                                  |
  |                                  |                                  |
  |                                  |                                  |
E |----------------------------------|----------------------------------|
B |----------------------------------|----------------------------------|
G |-(5)--------------(5)-------------|-(5)------------------------------|
D |-(5)--------------(5)-------------|-(5)------------------------------|
A |-(3)--------------(3)-------------|-(3)------------------------------|
E |----------------------------------|----------------------------------|
comments
print report bad tab
9 comments total. Showing first comments.
0 reply
Me09 wrote on July 17 2003, 12:00 am

dude u got this tab off the official tabliture u assface

0 reply
guitarist_182 wrote on July 17 2003, 12:00 am

q2ewq3TQETYQED

0 reply
guitarist_182 wrote on July 17 2003, 12:00 am


I want to post or [tab]
guest
You may want to rate the tab now too:
select rating
Please do not post tabs as comments. Select "correction" instead!