Oops, an error
Loading. Please wait.

Blink 182 Tab

ver1
ver1
More versions @911Tabs.com
166,514 views 96 this week
88 commentsread comments
1 2 3 4 5
worth learning
x 63
Autoscroll
+/-
esc
set tempo
stop
Contributor
Hey! There's an official Ultimate Guitar app which is ideal
for learning songs when you're away from computer. Get the app
WARNING: You are trying to view
                                    content from Ultimate-Guitar.com
                                    in an unauthorized application,
                                    which is prohibited.

                                    Please use an official Ultimate
                                    Guitar Tabs application for iPhone,
                                    iPad or Android to access legitimate
                                    chords, guitar, bass, and drum tabs
                                    from Ultimate-Guitar.com database.

                                    Type "ultimate guitar tabs" in Apple
                                    App Store's or Android Market's
                                    search to find the application.
Blink 182               |
Blink 182               |
Tabbed by Macbeth182    |
Contact info:           |
AIM SN: mRLARSENISCOOL  |
________________________|

~   Hold out note
*   Harmonics
pm. Palm mute
_x  (number) number of times to play measure

-All of the measures are labeled E-B-G-D-A-E because i am refering to that string
it doesn't mean that's how it is tuned. -When there is a chord with double digits
and single digits,i will make spaces after the dash on the single digits( -111111- )
                                            - 9 9 9-
-if their is something that looks like this 
 ----|
 ----|
 ----|
 ----|
 ----|
 ----|
after a normal measure it means to play the normal measure an play it the normal
amount of times. if their is a number behind this sign do the whold process that
many times.




Feeling This________________________________________________________________

Capo II
Drop D Tuning D-A-D-G-B-E

verse
E|-------------------|
B|-------------------|
G|-99--77-7---7/11---|
D|-xx--xx-x---x/ x---|
A|-770-55-5---5/ 9-0-| 10x
E|--------0--------0-|

chorus
E|---|---|
B|---|---|
G|---|---|
D|-0-|-0-|
A|-0-|-0-| 1x
E|-0-|-0-|

pre-verse
E|-----------------------------------------------------------|
B|-----------------------------------------------------------|
G|-77-7-7-777-99-9-9-999-1111-11-11-111111-1212-12-12-121212-|
D|-xx-x-x-xxx-xx-x-x-xxx- x x- x- x- x x x- x x- x- x- x x x-|
A|-55-5-5-555-77-7-7-777- 9 9- 9- 9- 9 9 9-1111-11-11-111111-| 1x
E|-----------------------------------------------------------|

verse
E|-------------------|
B|-------------------|
G|-99--77-7---7/11---|
D|-xx--xx-x---x/ x---|
A|-770-55-5---5/ 9-0-| 10x
E|--------0--------0-|

chorus
E|---|---|
B|---|---|
G|---|---|
D|-0-|-0-|
A|-0-|-0-| 1x
E|-0-|-0-|

bridge
E|------------------|
B|------------------|
G|------------------|
D|---4-4------------|
A|-55-5-55505555777-| 3x
E|------------------|
 pm................

E|------------|
B|------------|
G|------------|
D|---4-4------|
A|-55-5-5-0---| 1x
E|----------5-|
 pm..........

outtro
E|----------------------------------|
B|----------------------------------|
G|----------------------------------|
D|-7777777---------4444444----------|
A|-5555555-7777777-222222205555555--| 8x
E|--------077777770--------55555550-|

E|--------------|
B|--------------|
G|--------------|
D|-7777777------|
A|-5555555-7777-|
E|--------07777-| fade




Obvius______________________________________________________________________

C# Tuning C#-A-D-G-B-E

intro
E|----------------|
B|----------------|
G|--------2--22-2-|
D|--------2--22-2-|
A|-4---4-x0--00-0-| 6x
E|-0---0-x3--33-3-|

verse
E|----------------|
B|----------------|
G|--------2~~~~~~~|
D|--------2~~~~~~~|
A|-4~~~~~~0~~~~~~~| 2x
E|-0~~~~~~3~~~~~~~|

chorus
E|--------------------------------------------------------------------|
B|--------------------------------------------------------------------|
G|--------------------------------------------------------------------|
D|--------------------------------------------------------------------|
A|--------------------------------------------------------------------| 2x
E|-3~~~~~~~~~~~~~~~~7775558880002222-33333333333333337775558880002222-|

intro
E|----------------|
B|----------------|
G|--------2--22-2-|
D|--------2--22-2-|
A|-4---4-x0--00-0-| 4x
E|-0---0-x3--33-3-|

verse
E|----------------|
B|----------------|
G|--------2~~~~~~~|
D|--------2~~~~~~~|
A|-4~~~~~~0~~~~~~~| 2x
E|-0~~~~~~3~~~~~~~|

chorus
E|--------------------------------------------------------------------|
B|--------------------------------------------------------------------|
G|--------------------------------------------------------------------|
D|--------------------------------------------------------------------|
A|--------------------------------------------------------------------| 2x
E|-3~~~~~~~~~~~~~~~~7775558880002222-33333333333333337775558880002222-|

E|----------------------------------|
B|----------------------------------|
G|----------------------------------|
D|----------------------------------|
A|----------------------------------| 2x
E|-33333333333333337775558880002222-|

pre- bridge
E|----------|
B|----------|
G|-9~~~~~~~~|
D|-x--------|
A|-7~~~~~~~~| 1x
E|-0~~~~~~~~|

bridge
E|------------------------|
B|------------------------|
G|-999---6661111116111111-|
D|-xxx777xxx x x xx x x x-|
A|-777xxx444 9 9 94 9 9 9-| 6x
E|----888-----------------|

outtro
E|----------------------------------|    ----------|
B|----------------------------------|    ----------|
G|-9999999999999999-----------------|    ----------|
D|-99999999999999999999999999999999-|    -66666666-|
A|-77777777777777776666666666666666-| 2x -44444444-| 4x
E|----------------------------------|    ----------|

E|----------|
B|----------|
G|----------|
D|----------|
A|-4~~~~~~~~|
E|-0~~~~~~~~|


I Miss You__________________________________________________________________

Standard Tuning

intro
E|--------|
B|--------|
G|-4/88-8-|
D|-x/xx-x-|
A|-2/66-6-| 12x
E|--------|

verse
E|--------|
B|--------|
G|-4/88-8-|
D|-x/xx-x-|
A|-2/66-6-| 12x
E|--------|

chorus
E|---------------------------------------------------------------------|
B|---------------------------------------------------------------------|
G|-4-4-44-6-6-6-66-8-8-8-88-6-6-6-66-----------------4-4-4-44-4-4-4-44-|
D|-x-x-xx-x-x-x-xx-x-x-x-xx-x-x-x-xx-6-6-66-8-8-88-8-x-x-x-xx-x-x-x-xx-|
A|-2-2-22-4-4-4-44-6-6-6-66-4-4-4-44-x-x-xx-x-x-xx-x-2-2-2-22-2-2-2-22-| 2x
E|-----------------------------------4-4-44-6-6-66-6-------------------|

verse
E|--------|
B|--------|
G|-4/88-8-|
D|-x/xx-x-|
A|-2/66-6-| 12x
E|--------|

chorus
E|---------------------------------------------------------------------|
B|---------------------------------------------------------------------|
G|-4-4-44-6-6-6-66-8-8-8-88-6-6-6-66-----------------4-4-4-44-4-4-4-44-|
D|-x-x-xx-x-x-x-xx-x-x-x-xx-x-x-x-xx-6-6-66-8-8-88-8-x-x-x-xx-x-x-x-xx-|
A|-2-2-22-4-4-4-44-6-6-6-66-4-4-4-44-x-x-xx-x-x-xx-x-2-2-2-22-2-2-2-22-| 2x
E|-----------------------------------4-4-44-6-6-66-6-------------------|

verse
E|--------|
B|--------|
G|-4/88-8-|
D|-x/xx-x-|
A|-2/66-6-| 12x
E|--------|

chorus
E|---------------------------------------------------------------------|
B|---------------------------------------------------------------------|
G|-4-4-44-6-6-6-66-8-8-8-88-6-6-6-66-----------------4-4-4-44-4-4-4-44-|
D|-x-x-xx-x-x-x-xx-x-x-x-xx-x-x-x-xx-6-6-66-8-8-88-8-x-x-x-xx-x-x-x-xx-|
A|-2-2-22-4-4-4-44-6-6-6-66-4-4-4-44-x-x-xx-x-x-xx-x-2-2-2-22-2-2-2-22-| 2x
E|-----------------------------------4-4-44-6-6-66-6-------------------|




Violence____________________________________________________________________

Capo II
guitar 1

pick-up
E|-----|
B|-----|
G|-----|
D|-----|
A|-----| 1x
E|-555-|
   bbb 

intro
guitar 1
E|------------------------------------------------------------------|
B|------------------------------------------------------------------|
G|------------------------------------------------------------------|
D|------------------------------------------------------------------|
A|------------------------------------------------------------------| 2x
E|-55-55-555-55-55-55-555-55-55-55-555-55-55-55-555-55-55-55-555-55-|
   bb bb bbb bb bb bb bbb bb bb bb bbb bb bb bb bbb bb bb bb bbb bb 
guitar 2
E|------------------------------------------------------------------|
B|------------------------------------------------------------------|
G|------------------------------------------------------------------|
D|---------------------------------------7-77---7-------------------|
A|---------------------------------------x-xx---x-------------------| 2x
E|---------------------------------------5-55---5-------------------|

chorus
E|-----------------------------------------------------|
B|-----------------------------------------------------|
G|-----------------------------------------------------|
D|-7-77-7-7777--9-99-9-9999--4-44-4-4444--6-66-6-6666--|
A|-x-xx-x-xxxx--x-xx-x-xxxx--x-xx-x-xxxx--x-xx-x-xxxx--| 2x
E|-5-55-5-55550-7-77-7-77770-2-22-2-22220-4-44-4-44440-|

rest during verse

chorus
E|-----------------------------------------------------|
B|-----------------------------------------------------|
G|-----------------------------------------------------|
D|-7-77-7-7777--9-99-9-9999--4-44-4-4444--6-66-6-6666--|
A|-x-xx-x-xxxx--x-xx-x-xxxx--x-xx-x-xxxx--x-xx-x-xxxx--| 2x
E|-5-55-5-55550-7-77-7-77770-2-22-2-22220-4-44-4-44440-|

rest during verse

chorus
E|-----------------------------------------------------|
B|-----------------------------------------------------|
G|-----------------------------------------------------|
D|-7-77-7-7777--9-99-9-9999--4-44-4-4444--6-66-6-6666--|
A|-x-xx-x-xxxx--x-xx-x-xxxx--x-xx-x-xxxx--x-xx-x-xxxx--| 2x
E|-5-55-5-55550-7-77-7-77770-2-22-2-22220-4-44-4-44440-|

bridge
E|-------|
B|-------|
G|-------|
D|-7~~~~~|
A|-x~~~~~| 1x
E|-5~~~~~| 

E|-------|
B|-------|
G|-------|
D|-7~~~~~|
A|-------| 1x
E|-------|

E|-----------|
B|-----------|
G|-----------|
D|-----------|
A|-7---------| 8x
E|---5-4-5~~~|

chorus
E|-----------------------------------------------------|
B|-----------------------------------------------------|
G|-----------------------------------------------------|
D|-7-77-7-7777--9-99-9-9999--4-44-4-4444--6-66-6-6666--|
A|-x-xx-x-xxxx--x-xx-x-xxxx--x-xx-x-xxxx--x-xx-x-xxxx--| 4x
E|-5-55-5-55550-7-77-7-77770-2-22-2-22220-4-44-4-44440-|

outtro
E|------------------------------------------------------------------
B|------------------------------------------------------------------
G|------------------------------------------------------------------
D|------------------------------------------------------------------
A|------------------------------------------------------------------ 2x 
E|-55-55-555-55-55-55-555-55-55-55-555-55-55-55-555-55-55-55-555-55- fade
   bb bb bbb bb bb bb bbb bb bb bb bbb bb bb bb bbb bb bb bb bbb bb 




Stockholm Syndrome__________________________________________________________

Standard Tuning

pre-intro
guitar 1
E|-----------------------------------------------|
B|-----------------------------------------------|
G|--------------------------------12p0-0---0-0-4-|
D|--------------5/9~~~~~~~~~~~~~~----------------|
A|-----------------------------------------------| 1x
E|-----------------------------------------------|
guitar 2
E|-----------------------------------------------|
B|-----------------------------------------------|
G|----------------------------2222---------------|
D|-2222-----5555-----5555-----2222---------------|
A|-2222-----3333-----2222-----0000---------------| 1x
E|-0000------------------------------------------|

intro
guitar 1
E|------------------------------------------|
B|-----------12~~~----12~~~----12~~~~----12~|
G|-----1212-----1212-----1212------1212-----|
D|---------12-------12-------12--------12---|
A|------------------------------------------| 1x
E|------------------------------------------|
       * * * *  * * * *  * * * *   * * * *
guitar 2
E|------------------------------------------|
B|------------------------------------------|
G|----------------------------2222-55555555-|
D|-5555-----5555-----5555-----2222-xxxxxxxx-|
A|-2222-----3333-----2222-----0000-33333333-| 1x
E|-0000-------------------------------------|

verse
guitar 2
E|----------------------------------------------------------------------|
B|----------------------------------------------------------------------|
G|----------------------------------------------------22222222----------|
D|-5555555555555555-5555555555555555-5555555555555555-22222222----------|
A|-2222222222222222-3333333333333333-2222222222222222-00000000-55555555-| 1x
E|-0000000000000000--------------------------------------------22222222-|

E|----------------------------------------------------------------------|
B|----------------------------------------------------------------------|
G|----------------------------------------------------22222222-55555555-|
D|-5555555555555555-5555555555555555-5555555555555555-22222222-xxxxxxxx-|
A|-2222222222222222-3333333333333333-2222222222222222-00000000-33333333-| 1x
E|-0000000000000000----------------------------------------------------0|

pre-bridge
guitar 2
E|----------------------|
B|----------------------|
G|----------------------|
D|-55555\44/555555555---|
A|-xxxxx\xx/xxxxxxxxx---|2x
E|-33333\22/333333333-0-|

bridge 1
guitar 2
E|-------------------------------------------------------|
B|-------------------------------------------------------|
G|-------------------------------------------------------|
D|-55555\44/555555555-5/77/99\55-55-4-55555\44/555555555-|
A|-xxxxx\xx/xxxxxxxxx-x/xx/xx\xx-xx-x-xxxxx\xx/xxxxxxxxx-|2x
E|-33333\22/333333333-3/33/33\33-33-2-33333\22/333333333-|

bridge 2
guitar 1
E|------------------------------------------------------------------|
B|------------------------------------------------------------------|
G|------------------------------------------------------------------|
D|------------------------------------------------------------------|
A|------------------------------------------------------------------| 1x
E|---------------------3322333------------------------------3333222-|
                       pm.....                              pm.....
guitar 2
E|------------------------------------------------------------------|
B|------------------------------------------------------------------|
G|------------------------------------------------------------------|
D|------------------------------------------------------------------|
A|------------------------------------------------------------------| 1x
E|-7777777777777887788888888888888877777777777777775555555533333333-|
   pm..............................................................

guitar 1
E|---5~~~3~~~~~~~~---2-3~~~~~~~---5~~~3~~~~~~~~~~~~~~~~~~~~~~~--2-3-|
B|-3~~~~~~~~~~~~~~-3~~~~~~~~~~~-3~~~~~~~~~~~~~~~~~~~~~~~~~~~~~------|
G|------------------------------------------------------------------|
D|------------------------------------------------------------------|
A|------------------------------------------------------------------| 1x
E|------------------------------------------------------------------|
guitar 2
E|------------------------------------------------------------------|
B|------------------------------------------------------------------|
G|------------------------------------------------------------------|
D|------------------------------------------------------------------|
A|------------------------------------------------------------------| 1x
E|-7777777777777887788888888888888877777777777777775555555533333333-|
   pm..............................................................

guitar 1
E|---5~~~3~~~~~~~~-5-2-3~~~~~~~---5~2~3~~~~~~~~~~~~~~~~~~~~5-2-3~~~~|
B|-3~~~~~~~~~~~~~~--------------------------------------------------|
G|------------------------------------------------------------------|
D|------------------------------------------------------------------|
A|------------------------------------------------------------------| 1x
E|------------------------------------------------------------------|
guitar 2
E|------------------------------------------------------------------|
B|------------------------------------------------------------------|
G|------------------------------------------------------------------|
D|------------------------------------------------------------------|
A|------------------------------------------------------------------| 1x
E|-777777777777788778888888888888887777777777777777555555553~~~~~~~-|
   pm......................................................

verse
guitar 2
E|------------------------------------------------------------------|
B|------------------------------------------------------------------|
G|-444444444444444455555555555555554444444444444444-----------------|
D|-xxxxxxxxxxxxxxxxxxxxxxxxxxxxxxxxxxxxxxxxxxxxxxxx7777777755555555-|
A|-222222222222222233333333333333332222222222222222xxxxxxxxxxxxxxxx-|2x
E|-------------------------------------------------5555555533333333-|

chorus
guitar 2
E|----------------------------------------------------------------------|
B|----------------------------------------------------------------------|
G|----------------------------------------------------22222222----------|
D|-5555555555555555-5555555555555555-5555555555555555-22222222----------|
A|-2222222222222222-3333333333333333-2222222222222222-00000000-55555555-| 1x
E|-0000000000000000--------------------------------------------22222222-|

guitar 1
E|----------------------------------------------------------------------|
B|-----------12~~~----12~~~----12~~~----12~~~----12~~~----12~~~----12~~~|
G|-----1212-----1212-----1212-----1212-----1212-----1212-----1212-------|
D|---------12-------12-------12--------12------12-------12-------12-----|
A|----------------------------------------------------------------------| 1x
E|----------------------------------------------------------------------|
       * * * *  * * * *  * * * *   * * * *  * * * *  * * * *  * * * * 
guitar 2
E|----------------------------------------------------------------------|
B|----------------------------------------------------------------------|
G|----------------------------------------------------22222222-55555555-|
D|-5555555555555555-5555555555555555-5555555555555555-22222222-xxxxxxxx-|
A|-2222222222222222-3333333333333333-2222222222222222-00000000-33333333-| 1x
E|-0000000000000000-----------------------------------------------------|

outtro
guitar 2
E|-------------------|
B|-------------------|
G|-------------------|
D|-5~~~~~~~~~~~~~~~~~|
A|-2~~~~~~~~~~~~~~~~~|
E|-0~~~~~~~~~~~~~~~~~|



Down________________________________________________________________________

Standard Tuning

intro
E|-----------------------|
B|-----------------------|
G|-----------------------|
D|-9-99-xx-9-99-xx-99-xx-|
A|-x-xx-xx-x-xx-xx-xx-xx-| 6x
E|-7-77-xx-7-77-xx-77-xx-|

verse
E|-----------------------------|
B|-----------------------------|
G|-----------------------------|
D|-99-99-9999-99-66-66-8888-88-|
A|-xx-xx-xxxx-xx-xx-xx-xxxx-xx-| 4x
E|-77-77-7777-77-44-44-6666-66-|

pre-chorus
E|-------|
B|-------|
G|-------|
D|-------|
A|-------| 1x
E|-0~~~~~|

chorus
E|---------------------------------------------------------------------|
B|---------------------------------------------------------------------|
G|---------------------------------------------------------------------|
D|-----------------------------------4-44-44-44-4-4444-----------------|
A|-6-66-66-66-6-66669-99-99-99-9-99992-22-22-22-2-22224-44-44-44-44444-| 1x
E|-4-44-44-44-4-44446-66-66-66-6-6666-----------------2-22-22-22-22222-|

E|----------------------------------------|
B|----------------------------------------|
G|----------------------------------------|
D|------------------------------------9~~~|
A|-6-66-66-66-6-66669-99-99-99-9-9999-x---| 2x
E|-4-44-44-44-4-44446-66-66-66-6-6666-7~~~|

bridge
E|-------------------------------------------------|
B|-------------------------------------------------|
G|-------------9-99-999-99-8-88-888-88-9-99-999-99-|
D|-9-99-999-99-x-xx-xxx-xx-x-xx-xxx-xx-x-xx-xxx-xx-|
A|-x-xx-xxx-xx-7-77-777-77-6-66-666-66-7-77-777-77-| 2x
E|-7-77-777-77-------------------------------------|

E|-----------------------|
B|-----------------------|
G|-----------------------|
D|-9-99-xx-9-99-xx-99-xx-|
A|-x-xx-xx-x-xx-xx-xx-xx-| 2x
E|-7-77-xx-7-77-xx-77-xx-|

pre-chorus
E|-------|
B|-------|
G|-------|
D|-------|
A|-------| 1x
E|-0~~~~~|

chorus
E|----------------------------------------|
B|----------------------------------------|
G|----------------------------------------|
D|------------------------------------9~~~|
A|-6-66-66-66-6-66669-99-99-99-9-9999-x---| 2x
E|-4-44-44-44-4-44446-66-66-66-6-6666-7~~~|


E|-------------------------------------------------|
B|-------------------------------------------------|
G|-------------9-99-999-99-8-88-888-88-9-99-999-99-|
D|-9-99-999-99-x-xx-xxx-xx-x-xx-xxx-xx-x-xx-xxx-xx-|
A|-x-xx-xxx-xx-7-77-777-77-6-66-666-66-7-77-777-77-| 2x
E|-7-77-777-77-------------------------------------|

outtro
E|-----7---7---|
B|---7---7---7-|
G|-4~~~~~~~~~~~|
D|-------------|
A|-------------| 16x
E|-------------|




The Fallen Interlude________________________________________________________

Standard Tuning

guitar instrumental
E|-17-------15/19-|
B|----------------|
G|----------------|
D|----------------|
A|----------------| 1x
E|----------------|

E|-------|
B|-7h8p7-|
G|-------|
D|-------|
A|-------| 1x
E|-------|

E|---------------------|
B|-12-10-8/10~~~~~~7h8-|
G|-12-11---------------|
D|---------------------|
A|---------------------| 1x
E|---------------------|

E|---------10~~~~~~----|
B|-12-10-8/10~~~~~~7/8-|
G|-12-11---------------|
D|---------------------|
A|---------------------| 4x
E|---------------------|

E|-19\\\\\|
B|--------|
G|--------|
D|--------|
A|--------|
E|--------|





Go__________________________________________________________________________


Standard Tuning

intro
E|---------------------------------------------------|
B|---------------------------------------------------|
G|- 9 9 9 9 9 9 9 9 9 9 9 9 9 9 9 9------------------|
D|-10101010101010101010101010101010-3333333333333333-|
A|- 7 7 7 7 7 7 7 7 7 7 7 7 7 7 7 7-3333333333333333-| 2x
E|- 8 8 8 8 8 8 8 8 8 8 8 8 8 8 8 8-1111111111111111-|

verse
E|-----------------------------------|
B|-----------------------------------|
G|-----------------------------------|
D|-----------------------------------|
A|-33333333333322/55-----------------| 2x
E|-------------------111111111111111-|

chorus
E|------------------|
B|------------------|
G|------------------|
D|-7777777733333333-|
A|-7777777733333333-| 2x
E|-5555555511111111-|

intro
E|---------------------------------------------------|
B|---------------------------------------------------|
G|- 9 9 9 9 9 9 9 9 9 9 9 9 9 9 9 9------------------|
D|-10101010101010101010101010101010-3333333333333333-|
A|- 7 7 7 7 7 7 7 7 7 7 7 7 7 7 7 7-3333333333333333-| 2x
E|- 8 8 8 8 8 8 8 8 8 8 8 8 8 8 8 8-1111111111111111-|

verse
E|-----------------------------------|
B|-----------------------------------|
G|-----------------------------------|
D|-----------------------------------|
A|-33333333333322/55-----------------| 2x
E|-------------------111111111111111-|

bridge
E|-----------------------------------|
B|-----------------------------------|
G|-----------------------------------|
D|-----------------------------------|
A|-3/5/7\3-3\2-3/5\3---3/5\3-3\2/3~~~| 1x
E|-----------------------------------|

E|-------|
B|-------|
G|-------|
D|-------|
A|-3~~~~~| 1x
E|-------|

E|---|
B|---|
G|---|
D|-7-|
A|-7-| 1x
E|-5-|

chorus
E|------------------|
B|------------------|
G|------------------|
D|-7777777733333333-|
A|-7777777733333333-| 2x
E|-5555555511111111-|

outtro
E|----------------------------------------------------------------------|
B|----------------------------------------------------------------------|
G|- 9 9 9 9 9 9 9 9 9 9 9 9 9 9 9 9----------------55557777999910101010-|
D|-101010101010101010101010101010103333333333333333xxxxxxxxxxxx x x x x-|
A|- 7 7 7 7 7 7 7 7 7 7 7 7 7 7 7 73333333333333333333355557777 8 8 8 8-|3x 
E|- 8 8 8 8 8 8 8 8 8 8 8 8 8 8 8 81111111111111111---------------------|

E|-----------------------------------------|
B|-----------------------------------------|
G|- 9 9 9 9 9 9 9 9- 9- 9- 9- 9- 9---------|
D|-1010101010101010-10-10-10-10-10---3~~~~~|
A|- 7 7 7 7 7 7 7 7- 7- 7- 7- 7- 7---3~~~~~| 
E|- 8 8 8 8 8 8 8 8- 8- 8- 8- 8- 8-0-1~~~~~|





Asthenia____________________________________________________________________

Standard Tuning

intro
E|---------------------------------------|
B|-----7~~~~~----------7~~~~~------------|
G|-7---------7---6-7---------7---6-7~~~~~|
D|---0---------0-----0---------0---------|
A|---------------------------------------| 1x
E|---------------------------------------|

verse
E|----------------------------------|
B|----------------------------------|
G|-77777777666666664444444466666666-|
D|-xxxxxxxxxxxxxxxxxxxxxxxxxxxxxxxx-|
A|-55555555444444442222222244444444-| 4x
E|----------------------------------|

pre-chorus
E|-------------------------------------------------------|
B|-------------------------------------------------------|
G|-776677997766779977667799776677997766779977667766------|
D|-xxxxxxxxxxxxxxxxxxxxxxxxxxxxxxxxxxxxxxxxxxxxxxxx------|
A|-554455775544557755445577554455445577554455775544------| 2x 
E|--------------------------------------------------2222-|
                                                    pm..
chorus
E|---------------------------------------|
B|---------------------------------------|
G|---------------------------------------|
D|---------------------------------------|
A|----5-5----5-5---5-----5-5----4-4---5--| 1x
E|-22-----33-----33-3-55-----55-----55-5-|

E|---------------------------------------|
B|---------------------------------------|
G|---------------------------------------|
D|---------------------------------------|
A|----5-5----5-5---5-----5-5----4~~~~~~~~| 1x
E|-22-----33-----33-3-55-----55----------|

intro
E|---------------------------------------|
B|-----7~~~~~----------7~~~~~------------|
G|-7---------7---6-7---------7---6-7~~~~~|
D|---0---------0-----0---------0---------|
A|---------------------------------------| 1x
E|---------------------------------------|

verse
E|----------------------------------|
B|----------------------------------|
G|-77777777666666664444444466666666-|
D|-xxxxxxxxxxxxxxxxxxxxxxxxxxxxxxxx-|
A|-55555555444444442222222244444444-| 4x
E|----------------------------------|

pre-chorus
E|-------------------------------------------------------|
B|-------------------------------------------------------|
G|-776677997766779977667799776677997766779977667766------|
D|-xxxxxxxxxxxxxxxxxxxxxxxxxxxxxxxxxxxxxxxxxxxxxxxx------|
A|-554455775544557755445577554455445577554455775544------| 2x 
E|--------------------------------------------------2222-|
                                                    pm..

chorus                                                   
E|---------------------------------------|
B|---------------------------------------|
G|---------------------------------------|
D|---------------------------------------|
A|----5-5----5-5---5-----5-5----4-4---5--| 1x
E|-22-----33-----33-3-55-----55-----55-5-|

E|---------------------------------------|
B|---------------------------------------|
G|---------------------------------------|
D|---------------------------------------|
A|----5-5----5-5---5-----5-5----4~~~~~~~~| 1x
E|-22-----33-----33-3-55-----55----------|

bridge
E|-----------------------------|
B|-----------------------------|
G|-77777-777777---7777b-7-7777-|
D|-xxxxx-xxxxxx---xxxx--x-xxxx-|
A|-55555-555555---5555b-7-5555-| 2x
E|-----------------------------|

E|---------------------|
B|---------------------|
G|---------------------|
D|-----444455552222222-|
A|---------------------| 5x
E|---------------------|

E|-------|
B|-------|
G|-------|
D|-0~~~~~|
A|-------| 1x
E|-------|

chorus                                                   
E|---------------------------------------|
B|---------------------------------------|
G|---------------------------------------|
D|---------------------------------------|
A|----5-5----5-5---5-----5-5----4-4---5--| 1x
E|-22-----33-----33-3-55-----55-----55-5-|

E|---------------------------------------|
B|---------------------------------------|
G|---------------------------------------|
D|---------------------------------------|
A|----5-5----5-5---5-----5-5----4~~~~~~~~| 1x
E|-22-----33-----33-3-55-----55----------|

outtro
E|-------------------------------------------------------|
B|-------------------------------------------------------|
G|-776677997766779977667799776677997766779977667766------|
D|-xxxxxxxxxxxxxxxxxxxxxxxxxxxxxxxxxxxxxxxxxxxxxxxx------|
A|-554455775544557755445577554455445577554455775544------| 2x 
E|--------------------------------------------------2222-|
                                                    pm..

E|-------|
B|-------|
G|-7~~~~~|
D|-0~~~~~|
A|-5~~~~~|
E|-------|




Always______________________________________________________________________

Standard Tuning

intro
guitar 1
E|----------------------------------|
B|----------------------------------|
G|----------------------------------|
D|----------------------------------|
A|-22222222444444446666666622222222-| 2x
E|----------------------------------|

verse 1
guitar 1
E|----------------------------------|
B|----------------------------------|
G|----------------------------------|
D|----------------------------------|
A|-2222222--------------------------| 2x
E|--------0666666604444444444444444-|

guitar 1
E|----------------------------------|
B|----------------------------------|
G|----------------------------------|
D|----------------------------------|
A|-2222222--------------------------| 1x
E|--------0666666604444444444444444-|

guitar 2
E|----------------------------------|
B|----------------------------------|
G|----------------------------------|
D|----------------------------------|
A|-22222222-------------------------| 1x
E|---------666666604444444444444440-|
 pm................................

guitar 1
E|----------------------------------|
B|----------------------------------|
G|----------------------------------|
D|----------------------------------|
A|-2222222--------------------------| 2x
E|--------0666666604444444444444444-|

guitar 2
E|----------------------------------|
B|----------------------------------|
G|----------------------------------|
D|----------------------------------|
A|-22222222-------------------------| 1x
E|---------666666604444444022222222-|
 pm................................

pre-chorus
guitar 1
E|---------------------------------------|
B|-----4--4------4--4------4--4----------|
G|---4---4-----4---4-----4---4-----4---4-|
D|---------------------------------------|
A|-22--------44--------------------------| 2x
E|---------------------44--------00------|

guitar 2
E|---------------------------------------|
B|---------------------------------------|
G|--4~~~~~~~~~~~~~~~~~~~~~~~~~~~~~~~~~~~~|
D|--x------------------------------------|
A|--2~~~~~~~~~~~~~~~~~~~~~~~~~~~~~~~~~~~~| 2x
E|-0-------------------------------------|


Chorus
E|-------------------------------------|
B|-------------------------------------|
G|-44444444/88888888-------------------|
D|-xxxxxxxx-xxxxxxxx-66666666----------|
A|-22222222/66666666-xxxxxxxx-77777777-| 
E|-------------------44444444-00000000-|

post-chorus
guitar 1
E|---------------------------------------|
B|-----4--4------4--4------4--4----------|
G|---4---4-----4---4-----4---4-----4---4-|
D|---------------------------------------|
A|-22--------44--------------------------| 2x
E|---------------------44--------00------|

verse 2
E|---------------------|
B|---------------------|
G|---------------------|
D|---------------------|
A|-6---6-4---4-6-------| 2x
E|---7-----6-----4-2-4-|


pre-chorus
guitar 1
E|---------------------------------------|
B|-----4--4------4--4------4--4----------|
G|---4---4-----4---4-----4---4-----4---4-|
D|---------------------------------------|
A|-22--------44--------------------------| 4x
E|---------------------44--------00------|

guitar 2
E|---------------------------------------|
B|---------------------------------------|
G|--4~~~~~~~~~~~~~~~~~~~~~~~~~~~~~~~~~~~~|
D|--x------------------------------------|
A|--2~~~~~~~~~~~~~~~~~~~~~~~~~~~~~~~~~~~~| 4x
E|-0-------------------------------------|

Chorus
E|-------------------------------------|
B|-------------------------------------|
G|-44444444/88888888-------------------|
D|-xxxxxxxx-xxxxxxxx-66666666----------|
A|-22222222/66666666-xxxxxxxx-77777777-| 2x 
E|-------------------44444444-00000000-|

pre-bridge
E|-----------------------------------|
B|-----------------------------------|
G|-444444443333333344444444/8888\446-|
D|-xxxxxxxxxxxxxxxxxxxxxxxx-xxxx-xxx-|
A|-222222221111111122222222/6666\224-| 2x
E|-----------------------------------|

bridge
E|-----------------------|
B|-----------------------|
G|-8---------------------|
D|-x---------------------|
A|-6--\4-2-----2/4/6\4-2-| 1x
E|-----------------------|

Chorus
E|-------------------------------------|
B|-------------------------------------|
G|-44444444/88888888-------------------|
D|-xxxxxxxx-xxxxxxxx-66666666----------|
A|-22222222/66666666-xxxxxxxx-77777777-| 4x 
E|-------------------44444444-00000000-|

Outtro
E|---------------------------------------------|
B|---------------------------------------------|
G|-8-8-8-8/9\8-8-8-8/9\8-8-8-8/9\8-8/9\8-8/9\8-|
D|-x-x-x-x---x-x-x-x---x-x-x-x---x-x---x-x---x-|
A|-6-6-6-6/7\6-6-6-6/7\6-6-6-6/7\6-6/7\6-6/7\6-| 5x
E|---------------------------------------------|

E|-------|
B|-------|
G|-4~~~~~|
D|-x-----|
A|-2~~~~~|
E|-------|




Easy Target_________________________________________________________________

Standard Tuning

intro
E|------------------|
B|------------------|
G|---------222------|
D|-4444444422222222-|
A|-xxxxxxxx00022222-| 4x
E|-22222222---00000-|

verse 1
E|---------------------------------------------------|
B|---------------------------------------------------|
G|---------------------------------------------------|
D|-11111111111111111111111111111111-999-111111-7~~~~~|
A|- x x x x x x x x x x x x x x x x-xxx- x x x-x~~~~~| 4x
E|- 9 9 9 9 9 9 9 9 9 9 9 9 9 9 9 9-777- 9 9 9-5~~~~~|

chorus
E|--------------------|
B|--------------------|
G|----------2222------|
D|-44444444-2222-2222-|
A|-xxxxxxxx-0000-2222-| 4x
E|-22222222------0000-|

verse 2
E|-------|
B|-------|
G|-------|
D|-7~~~~~|
A|-x-----| 1x
E|-5~~~~~|

E|----------------------------------|
B|----------------------------------|
G|----------------------------------|
D|-11~~~~~~~~~~~~~~~\9~~/11~~\7~~~~~|
A|- x----------------x--- x---x-----| 2x
E|- 9~~~~~~~~~~~~~~~\7~~/ 9~~\5~~~0~|

chorus
E|--------------------|
B|--------------------|
G|----------2222------|
D|-44444444-2222-2222-|
A|-xxxxxxxx-0000-2222-| 4x
E|-22222222------0000-|

bridge
E|--------------------|
B|--------------------|
G|-77777777-2222------|
D|-77777777-2222-2222-|
A|-55555555-0000-2222-| 3x
E|---------------0000-|

E|-------------------|
B|-------------------|
G|-77777777-66666666-|
D|-77777777-77777777-|
A|-55555555-44444444-| 1x
E|-------------------|

outtro
E|--------------------------|
B|--------------------------|
G|--------------------------|
D|--------------------------|
A|--------------------------| 11x 
E|-2/4/5/7\5-5/7/9-9/10\7-7-| fade after 5x





All of This_________________________________________________________________

Standard Tuning

intro
E|--------------------------------------------|
B|--------------------------------------------|
G|--------------------------------------------|
D|-4/6/7/9\7-7/9/11-11/12\9-9-4/6/7/9\7-7~~~~~|
A|-x-x-x-x-x-x-x- x- x- x-x-x-x-x-x-x-x-x-----| 2x
E|-2/4/5/7\5-5/7/ 9- 9/10\7-7-2/4/5/7\5-5~~~~~|

verse
E|---------------------------------------------------|
B|---------------------------------------------------|
G|---------------------------------------------------|
D|-11111111111111111111111111111111-999-111111-7~~~~~|
A|- x x x x x x x x x x x x x x x x-xxx- x x x-x~~~~~| 4x
E|- 9 9 9 9 9 9 9 9 9 9 9 9 9 9 9 9-777- 9 9 9-5~~~~~|

chorus
E|----------------------------------|
B|----------------------------------|
G|----------------------------------|
D|-44444444444466667777777777779999-|
A|-xxxxxxxxxxxxxxxxxxxxxxxxxxxxxxxx-| 2x
E|-22222222222244445555555555557777-|

intro
E|--------------------------------------------|
B|--------------------------------------------|
G|--------------------------------------------|
D|-4/6/7/9\7-7/9/11-11/12\9-9-4/6/7/9\7-7~~~~~|
A|-x-x-x-x-x-x-x- x- x- x-x-x-x-x-x-x-x-x-----| 2x
E|-2/4/5/7\5-5/7/ 9- 9/10\7-7-2/4/5/7\5-5~~~~~|

verse
E|---------------------------------------------------|
B|---------------------------------------------------|
G|---------------------------------------------------|
D|-11111111111111111111111111111111-999-111111-7~~~~~|
A|- x x x x x x x x x x x x x x x x-xxx- x x x-x~~~~~| 2x
E|- 9 9 9 9 9 9 9 9 9 9 9 9 9 9 9 9-777- 9 9 9-5~~~~~|

chorus
E|----------------------------------|
B|----------------------------------|
G|----------------------------------|
D|-44444444444466667777777777779999-|
A|-xxxxxxxxxxxxxxxxxxxxxxxxxxxxxxxx-| 2x
E|-22222222222244445555555555557777-|

intro
E|--------------------------------------------|
B|--------------------------------------------|
G|--------------------------------------------|
D|-4/6/7/9\7-7/9/11-11/12\9-9-4/6/7/9\7-7~~~~~|
A|-x-x-x-x-x-x-x- x- x- x-x-x-x-x-x-x-x-x-----| 2x
E|-2/4/5/7\5-5/7/ 9- 9/10\7-7-2/4/5/7\5-5~~~~~|

bridge
E|-------------------------------|
B|-------------------------------|
G|-------------------------------|
D|-----7-------7-------7-----6-6-|
A|-0-0---0-0-0---0-0-0---0-0-----| 8x
E|-------------------------------|

intro
E|----------------------------|
B|----------------------------|
G|----------------------------|
D|-4/6/7/9\7-7/9/11-11/12\9-9-|
A|-x-x-x-x-x-x-x- x- x- x-x-x-| 8x
E|-2/4/5/7\5-5/7/ 9- 9/10\7-7-|

verse
E|---------------------------------------------------|
B|---------------------------------------------------|
G|---------------------------------------------------|
D|-11111111111111111111111111111111-999-111111-7~~~~~|
A|- x x x x x x x x x x x x x x x x-xxx- x x x-x~~~~~| 2x
E|- 9 9 9 9 9 9 9 9 9 9 9 9 9 9 9 9-777- 9 9 9-5~~~~~|



Here's Your Letter__________________________________________________________

Standard Tuning

intro
E|------------------------------------------------------------------|
B|--------9---------------------------------------------------------|
G|-99999999999999996666666644444444---------------------------------|
D|-xxxxxxxxxxxxxxxxxxxxxxxxxxxxxxxx44444444777777777777777777777777-|
A|-77777777777777774444444422222222xxxxxxxx55555555xxxxxxxxxxxxxxxx-| 1x 
E|---------------------------------22222222--------5555555555555555-|

E|----------|
B|----------|
G|----------|
D|-7~~~~~~~~|
A|-x--------| 1x
E|-5~~~~~~~~|

verse
E|---------------------------------------------------|
B|---------------------------------------------------|
G|---------------------------------------------------|
D|---------------------------------------------------|
A|---------------------------------------------------| 1x
E|-2224445555555555555555999888101010999999922244455-|
 pm............................ . . ................

pre-chorus
E|-----------------|
B|-----------------|
G|----666----------|
D|-777xxx22244-444-|
A|-xxx444222xx-xxx-| 1x
E|-555---00022-222-| 

chorus
E|-------------------------------------------|
B|-------------------------------------------|
G|-7777-77-77-77---666----------7777-77-77-7-|
D|-xxxx-xx-xx-xx777xxx22244-444-xxxx-xx-xx-x-|
A|-5555-55-55-55xxx444222xx-xxx-5555-55-55-5-| 1x
E|--------------555---00022-222--------------|

verse
E|---------------------------------------------------|
B|---------------------------------------------------|
G|---------------------------------------------------|
D|---------------------------------------------------|
A|---------------------------------------------------| 1x
E|-2224445555555555555555999888101010999999922244455-|
 pm............................ . . ................

E|----------|
B|----------|
G|----------|
D|-7~~~~~~~~|
A|-x--------| 1x
E|-5~~~~~~~~|

pre-chorus
E|-----------------|
B|-----------------|
G|----666----------|
D|-777xxx22244-444-|
A|-xxx444222xx-xxx-| 1x
E|-555---00022-222-| 

chorus
E|------------------------------|
B|------------------------------|
G|-7777-77-77-77---666----------|
D|-xxxx-xx-xx-xx777xxx22244-444-|
A|-5555-55-55-55xxx444222xx-xxx-| 3x
E|--------------555---00022-222-|

E|--------------|
B|--------------|
G|-7777-77-77-7-|
D|-xxxx-xx-xx-x-|
A|-5555-55-55-5-| 1x
E|--------------|

bridge
E|--------------------------------------------|
B|--------------------------------------------|
G|---------------------------7777777777777777-|
D|-77-7-77-7-77-7-77-7-7\6---xxxxxxxxxxxxxxxx-|
A|-xx-x-xx-x-xx-x-xx-x-x-x---5555555555555555-| 2x
E|-55-5-55-5-55-5-55-5-5\4p0------------------|

E|---------------------------------------|
B|---------------------------------------|
G|---------------------------------------|
D|-4444444446666666667777777777777777777-|
A|-xxxxxxxxxxxxxxxxxxxxxxxxxxxxxxxxxxxxx-| 2x
E|-2222222224444444445555555555555555555-|

pre-chorus
E|-----------------|
B|-----------------|
G|----666----------|
D|-777xxx22244-444-|
A|-xxx444222xx-xxx-| 1x
E|-555---00022-222-| 

chorus
E|------------------------------|
B|------------------------------|
G|-7777-77-77-77---666----------|
D|-xxxx-xx-xx-xx777xxx22244-444-|
A|-5555-55-55-55xxx444222xx-xxx-| 3x
E|--------------555---00022-222-|

E|--------------|
B|--------------|
G|-7777-77-77-7-|
D|-xxxx-xx-xx-x-|
A|-5555-55-55-5-| 1x
E|--------------|

intro
E|------------------------------------------------------------------|
B|--------9---------------------------------------------------------|
G|-99999999999999996666666644444444---------------------------------|
D|-xxxxxxxxxxxxxxxxxxxxxxxxxxxxxxxx44444444777777777777777777777777-|
A|-77777777777777774444444422222222xxxxxxxx55555555xxxxxxxxxxxxxxxx-| 1x 
E|---------------------------------22222222--------5555555555555555-|

E|-------|
B|-------|
G|-9~~~~~|
D|-7~~~~~|
A|-7~~~~~|
E|-5~~~~~|




I'm Lost Without You________________________________________________________

Standard Tuning

rest verse 1

chorus 1
guitar 1
E|-----5-------5-------5-------5-------5-------5-------5-------5----|
B|-----x-------x-------x-------x-------x-------x-------x-------x----|
G|-----2-------2-------2-------2-------2-------2-------2-------2----|
D|------------------------------------------------------------------|
A|------------------------------------------------------------------| 2x
E|------------------------------------------------------------------|
guitar 2
E|------------------------------------------------------------------|
B|------------------------------------------------------------------|
G|------------------------------------------------------------------|
D|-777-7-77777-7-77766-6-66666-6-66644-4-44444-4-44666-6-66666-6-66-|
A|-xxx-x-xxxxx-x-xxxxx-x-xxxxx-x-xxxxx-x-xxxxx-x-xxxxx-x-xxxxx-x-xx-| 2x
E|-555-5-55555-5-55544-4-44444-4-44422-2-22222-2-22444-4-44444-4-44-|

verse 2
E|-----------------------------------------------------------------|
B|-----------------------------------------------------------------|
G|-----------------------------------------------------------------|
D|-7-7-7-7-7-7-7-7-6-6-6-6-6-6-6-6-7-7-7-7-7-7-7-7-9-9-9-9-9-9-9-9-|
A|-x-x-x-x-x-x-x-x-x-x-x-x-x-x-x-x-x-x-x-x-x-x-x-x-x-x-x-x-x-x-x-x-| 4x
E|-5-5-5-5-5-5-5-5-4-4-4-4-4-4-4-4-5-5-5-5-5-5-5-5-7-7-7-7-7-7-7-7-|

chorus 1
guitar 1
E|-----5-------5-------5-------5-------5-------5-------5-------5----|
B|-----x-------x-------x-------x-------x-------x-------x-------x----|
G|-----2-------2-------2-------2-------2-------2-------2-------2----|
D|------------------------------------------------------------------|
A|------------------------------------------------------------------| 2x
E|------------------------------------------------------------------|
guitar 2
E|------------------------------------------------------------------|
B|------------------------------------------------------------------|
G|------------------------------------------------------------------|
D|-777-7-77777-7-77766-6-66666-6-66644-4-44444-4-44666-6-66666-6-66-|
A|-xxx-x-xxxxx-x-xxxxx-x-xxxxx-x-xxxxx-x-xxxxx-x-xxxxx-x-xxxxx-x-xx-| 2x
E|-555-5-55555-5-55544-4-44444-4-44422-2-22222-2-22444-4-44444-4-44-|

chorus 2
guitar 1
E|-5---5---5---5---5---7---7---7---7---|
B|---5---5---5---5---5---5---5---5---5-|
G|-------------------------------------|
D|-------------------------------------|
A|-------------------------------------| 4x
E|-------------------------------------|
guitar 2
E|------------------------------------------------------------------|
B|------------------------------------------------------------------|
G|------------------------------------------------------------------|
D|-777-7-77777-7-77766-6-66666-6-66644-4-44444-4-44666-6-66666-6-66-|
A|-xxx-x-xxxxx-x-xxxxx-x-xxxxx-x-xxxxx-x-xxxxx-x-xxxxx-x-xxxxx-x-xx-| 4x
E|-555-5-55555-5-55544-4-44444-4-44422-2-22222-2-22444-4-44444-4-44-|

E|-5~~~~~|
B|-------|
G|-------|
D|-------|
A|-------| 1x
E|-------|

E|-------|
B|-------|
G|-------|
D|-7~~~~~|
A|-x-----| 1x
E|-5~~~~~|

chorus 1
guitar 1
E|-----5-------5-------5-------5-------5-------5-------5-------5----|
B|-----x-------x-------x-------x-------x-------x-------x-------x----|
G|-----2-------2-------2-------2-------2-------2-------2-------2----|
D|------------------------------------------------------------------|
A|------------------------------------------------------------------| 6x
E|------------------------------------------------------------------|
guitar 2
E|------------------------------------------------------------------|
B|------------------------------------------------------------------|
G|------------------------------------------------------------------|
D|-777-7-77777-7-77766-6-66666-6-66644-4-44444-4-44666-6-66666-6-66-|
A|-xxx-x-xxxxx-x-xxxxx-x-xxxxx-x-xxxxx-x-xxxxx-x-xxxxx-x-xxxxx-x-xx-| 6x
E|-555-5-55555-5-55544-4-44444-4-44422-2-22222-2-22444-4-44444-4-44-|

chorus 2
guitar 1
E|-5---5---5---5---5---7---7---7---7---|
B|---5---5---5---5---5---5---5---5---5-|
G|-------------------------------------|
D|-------------------------------------|
A|-------------------------------------| 16x
E|-------------------------------------| 
guitar 2
E|------------------------------------------------------------------|
B|------------------------------------------------------------------|
G|------------------------------------------------------------------|
D|-777-7-77777-7-77766-6-66666-6-66644-4-44444-4-44666-6-66666-6-66-|
A|-xxx-x-xxxxx-x-xxxxx-x-xxxxx-x-xxxxx-x-xxxxx-x-xxxxx-x-xxxxx-x-xx-| 16x
E|-555-5-55555-5-55544-4-44444-4-44422-2-22222-2-22444-4-44444-4-44-|
comments
print report bad tab
88 comments total. Showing first comments.
0 reply
pers_860725 wrote on December 22 2003, 12:00 am

Hey I´m from Mexico and I´m a great fan of Blink 182 and let me tell you this is amazing, you have my five stars vote, keep tabbing. PASADO DE VERGA

0 reply
LiL_rocker808 wrote on December 22 2003, 12:00 am

wow very good tab but sum of the tunigs are weird cuz i suckat guitar....

0 reply
LiL_rocker808 wrote on December 22 2003, 12:00 am

this tab rocks.............................

I want to post or [tab]
guest
You may want to rate the tab now too:
select rating
Please do not post tabs as comments. Select "correction" instead!